» » »

Alice Cooper, Dyslexia Tabs (ver.1)

Artists:  A B C D E F G H I J K L M N O P Q R S T U V W X Y Z # 

Dyslexia Tabs (ver.1)

Alice Cooper Tabs
Rating:
0/5 (0 votes)
Dyslexia lessons Tabs too difficult? Try these video lessons and learn fast
                Band: Alice Cooper

Note: Play the notes in the riffs along with the lyrics that Alice sings.

Keys
b = bend
r = release
\ = slide up neck 
/ = slide down neck
h = hammer-on
p = pull-off
~ = hold note
w = whammy bar
v = vibrato

Horns
E-------------|
B-------------|
G-------------| repeat throughout
D-----3-3-----| the whole song
A-------------|
E-1-1-----1---|

0:08
E----------17~~--|
B-/14--17--------|
G----------------|
D----------------|
A----------------|
E----------------|

0:15
E--------13~~--|
B-/10-13-------|
G--------------|
D--------------|
A--------------|
E--------------|

Riff 1
E---------------------------------------------------------------------|
B----------------------------------------------5----------------------|
G-3-2---3-2-------------3-2---3-2------------6-----7-6---------4--7--6|
D-----3-----3-1--3-3\-------3-----3-1--1-3-------7-----7-5--7---------|
A---------------------------------------------------------------------|
E---------------------------------------------------------------------|

Riff 2
E--------------------------------------------------------------------|
B-----------------------------------------------5--------------------|
G-3-2---3-2-------------3-2---3-2-------------6-----7-6---------4--7-|
D-----3-----3-1--3-3\-------3-----3-1--3-3\-------7-----7-5--7-------|
A--------------------------------------------------------------------|
E--------------------------------------------------------------------|

E-----------------------------------------------|
B-8\--5--5-5----------------6-6-5------5------5-|
G------------7-5-4-4---------------7-5---7--7---|
D---------------------7-7-----------------------|
A-----------------------------------------------|
E-----------------------------------------------|

Riff 3
E-------------|
B-3--4--5--6--|
G-------------| play the notes
D-------------| with “Dys-lex-i-a”
A-------------|
E-------------|

Riff 4
E--------------------------|
B-3--4--5--6~~--8~~--10~~--|
G--------------------------|
D--------------------------|
A--------------------------|
E--------------------------|

Riff 1
Sometimes my world goes upside down
Sometimes I see things backwards
When I go walking in town, can't get back home

Riff 2
Sometimes I see things right to left
And I know that's not right at all
But since I bumped into you, I bump into walls
And no one knows what's wrong with me
They think that I got dropsie
Is dis love?

Riff 3 (2x)
Or is dys-lex-i-a
Dys-lex-i-a

Riff 4
Dys-lex-i-a

Riff 1
I've got these glasses real thick and green
Just like the bottoms of coke bottles
I stumble 'round my house, so strange to me

Riff 2
Sometimes my world goes upside down
Sometimes I see things backwards
But since I bumped into you, I bump into walls
And no one knows what's wrong with me
They think that I got dropsie
Is dis love?

Riff 3 (2x)
Or is dys-lex-i-a
Dys-lex-i-a

Riff 4
Dys-lex-i-a

Solo:
2:25
2:40
2:45
E------------------|
B------------------|
G-3-2---3-2--------|
D-----3-----3-1~~--|
A------------------|
E------------------|

2:49
E------------------|
B---5--------------|
G-6-----7-6--------|
D-----7-----7-5~~--|
A------------------|
E------------------|

2:54
E------------------|
B------------------|
G-3-2---3-2--------|
D-----3-----3-1~~--|
A------------------|
E------------------|

Riff 1
I've got these glasses real thick and green
Just like the bottoms of coke bottles
I stumble 'round my house, so strange to me

Riff 2
Sometimes my world goes upside down
Sometimes I see things backwards
But since I bumped into you, I bump into walls
And no one knows what's wrong with me
They think that I got dropsie
Is dis love?

Riff 3 (repeat till the end)
Or is dys-lex-i-a
Dys-lex-i-a
Dys-lex-i-a, yeah
Dys-lex-i-a
Dys-lex-i-a, no
Dys-lex-i-a
yeah no yeah no yeah no yeah...
            
Submit corrections

comments powered by Disqus
↑ Back to top | Alice Cooper Tabs for Dyslexia. Lyrics for acoustic guitar and electric guitar. Tablatures and chords are parodies/interpretations of the original songs. You may use it for private study, scholarship, research or language learning purposes only