» » »

Alice Cooper, Don't Blow Your Mind Tabs (ver.1)

Artists:  A B C D E F G H I J K L M N O P Q R S T U V W X Y Z # 

Don't Blow Your Mind Tabs (ver.1)

Alice Cooper Tabs
Rating:
0/5 (0 votes)
Don't Blow Your Mind lessons Tabs too difficult? Try these video lessons and learn fast
                Band: The Spiders/Pre-Alice Cooper

NOTE: This song was written and performed by the Pre-Alice Cooper band back in their
school days. The members include Vincent Furnier/Alice Cooper (vocals), Glen Buxton (lead
Dennis Dunaway (bass), and John Speer (drums). This song was actually a big hit in 
I didn't do the solo because you can barely hear it, also this isn't the Life and
of Alice Cooper version of the song, it's from the Spiders single (you can buy on iTunes).

Intro
Electric Guitar and Bass
E--------------------------------------------------------|
B--------------------------------------------------------|
G--------------------------------------------------------|
D--------------------------------------------------------|
A-5~~~------------------------3~~~----------5---5~~~-----|
E---------------3~~~-------------------------------------|

Acoustic guitar enters…

Riff 1
Acoustic Guitar
E--------------------------------------------------------|
B-3~~~----------3~~~----------1~~~----------3---3~~~-----|
G-2~~~----------0~~~----------0~~~----------2---2~~~-----|
D-0~~~----------0~~~----------2~~~----------0---0~~~-----|
A---------------2~~~----------3~~~-----------------------|
E---------------3~~~-------------------------------------|

Electric Guitar and Bass
E--------------------------------------------------------|
B--------------------------------------------------------|
G--------------------------------------------------------|
D--------------------------------------------------------|
A-5~~~------------------------3~~~----------5---5~~~-----|
E---------------3~~~-------------------------------------|

Riff 2
Acoustic Guitar
E-------------------------|
B-3---3---3---3---3---3---|
G-2---2---2---2---2---2---|
D-0---0---0---0---0---0---|
A-------------------------|
E-------------------------|

Electric Guitar and Bass
E-------------------------|
B-------------------------|
G-------------------------|
D-0---0---0---0---0---0---|
A-------------------------|
E-------------------------|

Riff 3
Acoustic Guitar
E-3---3----2---1~~~---------------------------------|
B-3---3----2---1~~~---------------------------------|
G-4---4----3---2~~~---------------------------------|
D-5---5----4---3~~~---------------------------------|
A---------------------------------------------------|
E---------------------------------------------------|

Electric Guitar and Bass
E---------------------------------------------------|
B---------------------------------------------------|
G---------------------------------------------------|
D-5---5----4---3~~~---------------------------------|
A-------------------------------------3---5~~~------|
E---------------------------------------------------|

Riff 4
Acoustic Guitar
E----------------------------|
B-3--3--3--3--3--3--3--3--3--|
G-2--2--2--2--2--2--2--2--2--|
D-0--0--0--0--0--0--0--0--0--|
A----------------------------|
E----------------------------|

Electric Guitar and Bass
E----------------------------|
B----------------------------|
G----------------------------|
D----------------------------|
A----------------3---5~~~----|
E----------------------------|

Riff 5
Acoustic Guitar
E----------------------------|
B-3--3--3--3--3--3--3--3--3--|
G-2--2--2--2--2--2--2--2--2--|
D-0--0--0--0--0--0--0--0--0…-|
A----------------------------|
E----------------------------|

Electric Guitar and Bass
E----------------------------|
B----------------------------|
G----------------------------|
D----------------------------|
A-3--5--5--5--5--5--5--5--5…-|
E----------------------------|

Song Order:
Intro
Riff 1

Riff 1 (4x)
I said one day I’d find the game
Well now you know I'm not insane
You tried to take me for a ride
Now all you feel is suicide

Riff 2
We’re two of a kind
Riff 3
Take what you can find
Riff 4
So don’t blow your mind,
Riff 5
Away…

Riff 1 (4x)
You led me to another life
Of work and pain and sacrifice
I broke away from you somehow
And look who's goin' through it now

Riff 2
We’re two of a kind
Riff 3
Take what you can find
Riff 4
So don’t blow your mind,
Riff 5
Away…

Riff 1 (4x)
So now you know the reason why
I'm laughing here and why you cry
'Cause you don't mean a thing no more
And I'm just like I was before

Riff 2
We’re two of a kind
Riff 3
Take what you can find
Riff 4
So don’t blow your mind,
Riff 5
Away…

Solo

Riff 1 (2x)

Riff 1 (4x)
So now you know the reason why
I'm laughing here and why you cry
'Cause you don't mean a thing no more
And I'm just like I was before

Riff 2
We’re two of a kind
Riff 3
Take what you can find
Riff 4
So don’t blow your mind,
Riff 5
Away…

Outro
            

comments powered by Disqus
↑ Back to top | Alice Cooper Tabs for Don't Blow Your Mind. Lyrics for acoustic guitar and electric guitar. Tablatures and chords are parodies/interpretations of the original songs. You may use it for private study, scholarship, research or language learning purposes only