» » »

Alice Cooper, Dirty Dreams Tabs (ver.1)

Artists:  A B C D E F G H I J K L M N O P Q R S T U V W X Y Z # 

Dirty Dreams Tabs (ver.1)

Alice Cooper Tabs
 Rating:
4/5 (4 votes)
Dirty Dreams lessons Tabs too difficult? Try these video lessons and learn fast
                -----------------------------------------------------------------
-----------------------------------------------------------------

Tuning: Standard Tuning ( E a d g b e )



PLEASE NOTE: The lyrics are not in sync with the tabs.. please listen to the actual
song to get timing correct
_______________________________________________________________________________________


e|-7-7-7---5-5-5-5-5---7-7-7--5-5-5-5----9--9--9---7-7-7-7-7--9--9--9--|
B|-8-8-8---7-7-7-7-7---8-8-8--7-7-7-7----10-10-10--9-9-9-9-9--10-10-10-|
G|-7-7-7---7-7-7-7-7---7-7-7--7-7-7-7----9--9--9---9-9-9-9-9--9--9--9--|
D|-5-5-5---7-7-7-7-7---5-5-5--7-7-7-7----7--7--7---9-9-9-9-9--7--7--7--|
A|---------5-5-5-5-5----------5-5-5-5--------------7-7-7-7-7-----------|
E|---------------------------------------------------------------------|

e|-7--------------------------------------------------------------|
B|-9--------------------------------------------------------------|
G|-9--------------------------------------------------------------|
D|-9--------------------------------------------------------------|
A|-7--------------------------------------------------------------|
E|----------------------------------------------------------------|




On this next part, it a big stretch for your little finger..
make sure you hitting the 6th fret on the G string.. and not the 5th..
e|---------------------------------------------------------------|
B|---------------------------------------------------------------|
G|----4-6----------6-4---------------------------6-4-------------|
D|-2--4-4--2-2--2--4-4--2-2--2-2-2-2-2-2-2-2--2--4-4-------------|
A|-2--2-2--2-2--2--2-2--2-2--2-2-2-2-2-2-2-2--2--2-2-------------|
E|-0-------0-0--0-------0-0--0-0-0-0-0-0-0-0--0------------------|
           x x          x    x x x x x x x x

Then repeat that ^^ Part as a 2nd guitarist does this:

e|-----------------------------------------------------------------------|
B|-----------------------------------------------------------------------|
G|--14(bend it up and down,listen to the track get the bend correct!)----|
D|-----------------------------------------------------------------------|
A|-----------------------------------------------------------------------|
E|-----------------------------------------------------------------------|



Verse 1
-----


e|---------------------------------------------------------------|
B|---------------------------------------------------------------|
G|----4-6----------6-4---------------------------6-4-------------|
D|-2--4-4--2-2--2--4-4--2-2--2-2-2-2-2-2-2-2--2--4-4-------------|
A|-2--2-2--2-2--2--2-2--2-2--2-2-2-2-2-2-2-2--2--2-2-------------|
E|-0-------0-0--0-------0-0--0-0-0-0-0-0-0-0--0------------------|
           x x          x    x x x x x x x x
Well i wake up....     My pillows are.....



e|----------------------------------------------------------------|
B|----------------------------------------------------------------|
G|----------4-6----------------------------6-4--------------------|
D|--2-------4-4--------------2-2----2------4-4------------2--4--2-|
A|--2-------2-2--------------2-2----2------2-2------------2--4--2-|
E|--0------------------------0-0----0---------------------0--0--0-|
                             x x
I jump out of bed         and        I turn out the light..

e|-----------------------------------------------|-----------------------------------|
B|-----------------------------------------------|-----------------------------------|
G|--2-2-2-2-2-2-2-2-2-2--------------------------|-4-4-4-4-4-4-4-4-4-----------------|
D|--2-2-2-2-2-2-2-2-2-2--------------------------|-4-4-4-4-4-4-4-4-4-----------------|
A|--0-0-0-0-0-0-0-0-0-0--------------------------|-2-2-2-2-2-2-2-2-2-----------------|
E|-----------------------------------------------|-----------------------------------|

   THis happens to me every night.....                  ^^Do that part on the 2nd time 
as you go into chorus

-Now repeat all that tab for the next halve of the verse...


Chorus
--------------

e|------------------------------------------------------------------|
B|------------------------------------------------------------------|
G|--7--9-9----------------------------------------------------------|
D|--7--9-9----------------------------------------------------------|
A|--5--7-7----------------------------------------------------------|
E|-----------------------5---3-5-7-3---0----------------------------|

 Dirty dreams!!        How you gonna....
e|-----------------------------------------------------------------|
B|-----------------------------------------------------------------|
G|--7--9-9---------------------------------------------------------|
D|--7--9-9---------------------------------------------------------|
A|--5--7-7---------------------------------------------------------|
E|---------------------5--3--5--3~---------------------------------|


 Dirty dreams!!       let me get through!
e|-----------------------------------------------------------------------|
B|-----------------------------------------------------------------------|
G|--7--9-9---------------------------------------------------------------|
D|--7--9-9---------------------------------------------------------------|
A|--5--7-7---------------------------------------------------------------|
E|----------------------5-5-5-5-3-5-7-3---0------------------------------|

 Dirty dreams!!        a triple x-rated....
e|---------------------------------------------------------------|
B|---------------------------------------------------------------|
G|----7---2------------------------------------------------------|
D|----7---2---2--------------------------------------------------|
A|----5---0---2--------------------------------------------------|
E|------------0--------------------------------------------------|

Starring me and you!!


--Now the rest of the song is basicly repeating all of this!
Just listen to the track itself and it will be easy to grasp.. if you have
any problems, just Email me!

Here is the solo as far as i can get it... I personally just improvise once i get to 
then end of my tabbed bit... just stick to the E minor pentatonic scale and you will be fine!



e|---------------------------------------------------------------------|
B|---------------------------------------------------------------------|
G|--/14--12--14--12--14~---12(bend up and down back to 12)-14--12--14~-|
D|---------------------------------------------------------------------|
A|---------------------------------------------------------------------|
E|---------------------------------------------------------------------|

e|---------------------------------------------------------------|
B|---------------------------------------------------------------|
G|-14b-12---12h14p12-9h12p9--7h9p7--5h7p5--2h5p2--2/5~-----------|
D|------------------------------------------------------7--5-7~--|
A|---------------------------------------------------------------|
E|---------------------------------------------------------------|

e|---------------------------------------------------------------|
B|---------------------------------------------------------------|
G|-7b(bend  up and back to 7)--5-7-5-7/9--7------7b7b7b7b7-------|
D|-------------------------------------------7--------------7----|
A|---------------------------------------------------------------|
E|---------------------------------------------------------------|



| /  slide up
| \  slide down
| h  hammer-on
| p  pull-off
| ~  vibrato
| +  harmonic
| x  Mute note
            
Submit corrections

comments powered by Disqus
↑ Back to top | Alice Cooper Tabs for Dirty Dreams. Lyrics for acoustic guitar and electric guitar. Tablatures and chords are parodies/interpretations of the original songs. You may use it for private study, scholarship, research or language learning purposes only