» » »

Devil's Food Tabs (ver.1)

Artists:  A B C D E F G H I J K L M N O P Q R S T U V W X Y Z # 

Devil's Food Tabs (ver.1)

Alice Cooper
Rating:
0/5 (0 votes)

Hard to play? Try these video lessons and learn fast.
                Band: Alice Cooper

Keys
h = hammer-on
b = bend
r = release
\ = slide down
/ = slide up

E-------------------------------|
B-------------------------------|
G--------------9--12---5--7-7---| 2x
D-----0---2----9--12---5--7-7---|
A-0h2----------7--10---3--5-5---|
E-------3----0------------------|

“Get ready for the lady
She's gonna be a treat
Simmer slightly 'til ready
Make her soft too
Make her sweet”
E---------------------------------------------------------------------|
B---------------------------------------------------------------------|
G---------------9--12---5--7-7----------------9--12---5--7-7----------|
D-5-5-5--7-7-7--9--12---5--7-7------0---2-----9--12---5--7-7--5--7----|
A-5-5-5--7-7-7--7--10---3--5-5--0h2-----------7--10---3--5-5--5--7----|
E-3-3-3--5-5-5------------------------3----0------------------3--5----|

E---------------------------------------------------------------------|
B---------------------------------------------------------------------|
G-9--12---5--7-7----------------9--12---5--7-7------------------------|
D-9--12---5--7-7------0---2-----9--12---5--7-7--5--7------------------|
A-7--10---3--5-5--0h2-----------7--10---3--5-5--5--7------------------|
E-----------------------3----0------------------3--5------------------|

“I kiss the tears off from your chest
I felt the poison fright that's in your breath
I knew your precious life and I know your death
I squeeze the love out of your soul
All the perfect love that's in your soul
You're just another spirit on parole
Devil's food (you are)
Devil's food (you are)
Devil's food (you are)”
E-----------------------------------------------------------------------|
B-8-6--8-8-6--8-6--8-8-6--8-6--8-8-6--8-6--8-8-6--8-6--8-8-6--8-6--8-8-6|
G-8-7--8-8-7--8-7--8-8-7--8-7--8-8-7--8-7--8-8-7--8-7--8-8-7--8-7--8-8-7|
D-----------------------------------------------------------------------|
A-----------------------------------------------------------------------|
E-----------------------------------------------------------------------|

E-----------------------------------------------------------------------|
B-----------------------------------------------------------------------|
G------------9-7------------------------------9-7b9r7b9r7---------------|
D--------7-9------5-5-5--7-7-7--2---------7-9-------------5-5-5--7-7-7--|
A-7-9-10----------5-5-5--7-7-7--2--7-9-10-----------------5-5-5--7-7-7--|
E-----------------3-3-3--5-5-5--0-------------------------3-3-3--5-5-5--|

E---------------------------------|
B---------------------------------|
G---------------------------------|
D-7/9--9\7--7--7/9--9--9\7--7/9---|
A-5/7--7\5--5--5/7--7--7\5--5/7---|
E---------------------------------|


Vincent Price speaks:
“Leaving lepidoptra - please, don't touch the display, little boy, aha cute!
Moving to the next aisle we have arachnida, the spiders, our finest collection.
This friendly little devil is the heptothilidi, unfortunately harmless.
Next to him, the nasty licosa raptoria, his tiny fangs cause creeping ulcerations of the 
*laugh*.
And here, my prize, the Black Widow. Isn't she lovely? and so deadly.
Her kiss is fifteen times as poisonous as that of the rattlesnake.
You see her venom is highly neurotoxic, which is to say that it attacks the central
system causing intense pain, profuse sweating, difficulty in breathing,
loss of consciousness, violent convulsions and, finally death.
You know I think what I love the most about her is her inborn need to dominate,
possess.
In fact, immediately after the consummation of her marriage to the smaller and weaker
of the specie she kills and eats him - *laugh*
oh, she is delicious and I hope he was!
Such power and dignity - unhampered by sentiment. If I may put forward a slice of
philosophy, I feel that man has ruled this world as a stumbling demented child-king long enough!
And as his empire crumbles, my precious Black Widow shall rise as his most fitting successor!”
E---------|
B---------|
G-5--7----|
D-5--7----|
A-3--5----|
E---------|
Then “The Black Widow” begins
            
Hard to play? Try these video lessons and learn fast. | Correct




comments powered by Disqus
↑ Back to top | Tablatures and chords are parodies/interpretations of the original songs. You may use it for private study, scholarship, research or language learning purposes only