» » »

Dead Babies Bass tabs (ver.2)

Artists:  A B C D E F G H I J K L M N O P Q R S T U V W X Y Z # 

Dead Babies Bass tabs (ver.2)

Alice Cooper
Rating:
0/5 (0 votes)

Hard to play? Try these video lessons and learn fast.
                Alice Cooper
Killer 1971

Pattern 1
G |---------|---------|--------------|---------|--------------|
D |---------|---------|--------------|---------|--------------|
A |---------|-----7-7-|-5-5-5--------|-----7-7-|-5-5-5--------|
E |-------0-|-5-5-----|-------88-6-0-|-5-5-----|-------88-6-0-|

Pattern 2
G |-------------|-----------------|---------|--------------|
D |-------------|----------5------|---------|--------------|
A |-------7-----|-------5----5----|-----7-7-|-5-5-5--------|
E |-5-5-8---8-5-|-3-5-6-------6-3/|-5-5-----|-------88-6-0-|

Pattern 3
G |--------|-----------|
D |--------|-----------|
A |---7--6-|----5--4-3-|
E |-5--4---|-33---2-1--|

These are the recurring pattern throughout the song.  Have a listen to get the right timing.
Enjoy.
Another great Tab from the Gandyman
            
Hard to play? Try these video lessons and learn fast. | Correct




comments powered by Disqus
↑ Back to top | Tablatures and chords are parodies/interpretations of the original songs. You may use it for private study, scholarship, research or language learning purposes only