» » »

Crazy Little Child Tabs (ver.1)

Artists:  A B C D E F G H I J K L M N O P Q R S T U V W X Y Z # 

Crazy Little Child Tabs (ver.1)

Alice Cooper
Rating:
5/5 (1 vote)

Hard to play? Try these video lessons and learn fast.
                Band: Alice Cooper

Keys
b = bend
r = release
\ = slide up neck 
/ = slide down neck
h = hammer-on
p = pull-off
~ = hold note
w = whammy bar
v = vibrato
t = trill (very fast hammer-ons)

Clarinet Solo
E--------------------------------------------------9------------------|
B-----10-------11-------10-------11-------10-----------11--13---11----|
G-12-------12-------12-------12-------12-------12---------------------|
D---------------------------------------------------------------------|
A---------------------------------------------------------------------|
E---------------------------------------------------------------------|

E-----10---10--10---10--10---10--10---10--10--------------------------|
B-11-------------------------------------------13--13--11--13---------|
G-----------------------------------------------------------------12--|
D---------------------------------------------------------------------|
A---------------------------------------------------------------------|
E---------------------------------------------------------------------|

E---------------------------------------------------------------------|
B-11---10-------------------------------------------------------------|
G----------12--10--------------------------------------------------12-|
D------------------13------10--10/12---10------10--12----------12-----|
A------------------------------------------13--------------13---------|
E---------------------------------------------------------------------|

E-------------------------------------------------11--10----|
B-11---10-------10--11----10-------------10--13-------------|
G----------12-------------------12--11----------------------|
D-----------------------------------------------------------|
A-----------------------------------------------------------|
E-----------------------------------------------------------|

Guitar Solo
E---------------------------------------------------------------------|
B---------------------------------------------------------------------|
G------15--17--17b19--hold---19r17--15----15--17--17p15------15-------|
D-/17----------------------------------------------------17-----------|
A---------------------------------------------------------------------|
E---------------------------------------------------------------------|

E----------15--18--15-------------------------------------------------|
B-------15-------------18--15-----------------------------------------|
G----15------------------------18--17---15----------------------------|
D-17------------------------------------------17--15--14-------15/17--|
A---------------------------------------------------------------------|
E---------------------------------------------------------------------|

E---------------------------------------------------------------------|
B---------------------------------------------------------------------|
G-15---------17b19--17b19----19p17------17--15-------------------15---|
D------17---------------------------17--------------17--15---17-------|
A---------------------------------------------------------------------|
E---------------------------------------------------------------------|

E---------------------------------------------------------------------|
B-----------------------------------------------------------------15--|
G---------------------------------------------------------15--17------|
D-17--15------------------------------------------15--17--------------|
A---------17--16--15----------------------15--17----------------------|
E----------------------18--------/15--18------------------------------|

E-----15--18--20--20/22-----|
B-18------------------------|
G---------------------------|
D---------------------------|
A---------------------------|
E---------------------------|
            
Hard to play? Try these video lessons and learn fast. | Correct




comments powered by Disqus
↑ Back to top | Tablatures and chords are parodies/interpretations of the original songs. You may use it for private study, scholarship, research or language learning purposes only