» » »

Clones Bass tabs (ver.1)

Artists:  A B C D E F G H I J K L M N O P Q R S T U V W X Y Z # 

Clones Bass tabs (ver.1)

Alice Cooper
Rating:
0/5 (0 votes)

Tabs too difficult? Try these video lessons and learn fast.
                ----------------------------------------------------------------------------
----------------------------------------------------------------------------


Tuning: standard EADG

GO ALICE!!!!   1980 comeback hit written by David Carron
bass comes in 00:15
G|---------------------------------------------------------------------------|
D|-------------22-22---------------55--55------------------------------55-55-|
A|----------33--------------33--55---------33---22------------------33-------|
E|-33-33-33----------33-33--------------------------33-33--33-33-33----------|

G|----------------------------------------------------------------------00---|
D|----------------55-55-------------22-2-2-22-2-2-00-0-0-00-0-0--22-2-2------|
A|--------33-55---------33--22-----------------------------------------------|
E|-33-33------------------------33-------------------------------------------|

G|-0-0--------------------------------------999999---------------------------|
D|-----22-2-2--22-2-2-00-0-0-00-0-0-00-0-0-----------------------------------|
A|---------------------------------------------------------------22-55-------|
E|---------------------------------------------------33-33-33-33-------33----|

G|---------------------------------------------------------------------------|
D|----------22-22---------------55-55---------------------55-55--------------|
A|-------33-------------33--55---------33-22--------33-55-------33-22--------|
E|-33-33----------33-33----------------------33-33--------------------33-33--|

G|---------------------------------------------------------------------------|
D|-----------2~--------------------------------------------------------------|
A|-3~----5~------------------------------------------------------------------|
E|---------------------------------------------------------------------------|
            
Tabs too difficult? Try these video lessons and learn fast.


comments powered by Disqus
↑ Back to top | Tablatures and chords are parodies/interpretations of the original songs. You may use it for private study, scholarship, research or language learning purposes only