» » »

Alice Cooper, Cleansed By Fire Tabs (ver.1)

Artists:  A B C D E F G H I J K L M N O P Q R S T U V W X Y Z # 

Cleansed By Fire Tabs (ver.1)

Alice Cooper Tabs
 Rating:
4/5 (4 votes)
Cleansed By Fire lessons Tabs too difficult? Try these video lessons and learn fast
                (Intro)
Band: Alice Cooper

E---------------0-----------------0-----------------0-----------------|
B-----8---8---8-------8-10-8----8-------8-10-8----8--------8-10--8----|
G-------9-------------------------------------------------------------|
D---9-------9------10--------10------11--------11-------10------------|
A---------------------------------------------------------------------|
E-0------------------------------------------------------------------0|

E-------------0-----------------0-----------------0------------------0|
B---8---8---8-------8-10-8----8-------8-10-8----8--------8-10-8----8--|
G-----9---------------------------------------------------------------|
D-9-------9------10--------10------11--------11-------10--------10----|
A---------------------------------------------------------------------|
E---------------------------------------------------------------------|

E----------------0-------------------0-------------------0------------|
B------9------------------9-------------------9-------------------9---|
G---11---11---11-------11---11----11-------11---11----11-------11---11|
D-9---------9-------10---------10-------11---------11-------10--------|
A---------------------------------------------------------------------|
E---------------------------------------------------------------------|

E-------0-|
B---------|
G----11---|
D-10------|
A---------|
E---------|

E---------------------------------------------------------------------|
B---------------------------------------------------------------------|
G---------------------------------------------------------------------|
D-9-9---9-9-10-10---8-8-9-9---9-9-10-10---8-8-9-9---9-9-10-10---10-10-|
A-7-7---7-7--7--7---7-7-7-7---7-7--7--7---7-7-7-7---7-7--7--7----7--7-|
E---------------------------------------------------------------------|

E------------------------------------------------------------------|
B------------------------------------------------------------------|
G------------------------------------------------------------------|
D-11-11---11-11-10~~---9-9---9-9-10-10---10-10-11-11---11-11-10~~--|
A--7--7----7--7--7~~---7-7---7-7--7--7----7--7--7--7----7--7--7~~--|
E------------------------------------------------------------------|
            
Submit corrections

comments powered by Disqus
↑ Back to top | Alice Cooper Tabs for Cleansed By Fire. Lyrics for acoustic guitar and electric guitar. Tablatures and chords are parodies/interpretations of the original songs. You may use it for private study, scholarship, research or language learning purposes only