» » »

Catch Me If You Can Tabs (ver.1)

Artists:  A B C D E F G H I J K L M N O P Q R S T U V W X Y Z # 

Catch Me If You Can Tabs (ver.1)

Alice Cooper
Rating:
0/5 (0 votes)

Hard to play? Try these video lessons and learn fast.
                Words and music by Alice Cooper, Danny Saber, Greg Hampton

Tuning:Dropped D  
  

                                               (20sec)         (23sec)

e|---------------------------------------------------------------------------|
B|-----------------------------------------------13------------10------------|
G|-----------------------------------------------15b17r15b17---12b14r12b14---|
D|--0-0--3-3--0-0--3-3--0-0---\-6-6--0-1-------------------------------------|
A|--0-0--3-3--0-0--3-3--0-0---\-6-6--0-1-------------------------------------|
E|--0-0--3-3--0-0--3-3--0-0---\-6-6--0-1-------------------------------------|


  Chorus  Catch me Catch me   if you can             
e|---------------------------------------------------------------------------|
B|---------------------------------------------------------------------------|
G|--------/7-------------------3----------3-5-3------------------------------|
D|--------/7-------------------3----------3-5-3-5-3--3-----0-1----0-1-1------|
A|--------/5-------------------1----------------5-3--3-----0-1----0-1-1------|
E|---------------------------------------------------------0-1----0-1-1------|


 Lick 1 ( 36 Sec )   ( 47 Sec  Lick 2 
e|--------------5------------------------------------------------------------|
B|------6---6-6--------------------------------------------------------------|
G|-/5-7---7----------------------10------------------------------------------|
D|---------------------10-12-10-----12-10--10b12r10b12r10b12r10b12r10b12r10b|
A|---------------------------------------------------------------------------|
E|---------------------------------------------------------------------------|


  hold bend  )    ( 52 to 55Sec hold repeat  )          1.21 sec Thrill 
e|---------------------------------------------------------------------------|
B|----------------10----10-----------------------------10h13p10h13p10h13-----|
G|----------------12b14-12b14------------------------------------------------|
D|-12r10b12~~~~~ ------------------------------------------------------------|
A|---------------------------------------------------------------------------|
E|---------------------------------------------------------------------------|

 
  Lick 3  1.29 Sec             ) ( play Lick 1 )  ( lick 4          (  X 4 ) 
e|---------------------------------------------------------------------------|
B|--12b14-12-10-12------------------------------------------6----------------|
G|--12b14-12-10-12------------------------------------5-7-5-5-7~~------------|
D|----------------/12~~~Feedback----------------------5-7-5-----------5b7r5p3|
A|---------------------------------------------------------------------------|
E|---------------------------------------------------------------------------|


 
                                                                  
e|-----------------------------------------------------------------10--------|
B|--10----------10------------13-----------------------------------13B15~~~~~|
G|--10-12-10-12-10-10-12-12b14--12b14r12p10--12-10---12-10-10----------------|
D|-----12-10-12----------------------------------------------12--------------|
A|---------------------------------------------------------------------------|
E|---------------------------------------------------------------------------|


                                                                       (1.53)  
e|---------------------------------------------------------------------------|
B|-13-10----------10---------13-----13-13-----13-----------------------------|
G|-------12-10----------12B14--12B14-----12B14---12B14R12P10-10-10-----10/17-|
D|-------------12------------------------------------------------------------|
A|-------------------------------------------------------------------- Repeat|
E|---------------------------------------------------------------------------|



  1.49 
e|---------------------------------------------------------------------------|
B|---------------------------------------------------------------------------|
G|---------------------------------------------------------------------------|
D|-1-1-1-1-0-1--3-3-3-3-1-3--3-3-3-3-1-3-6-6-6-6-6-6-8-8-8-8--8-6-5-3--------|
A|-1-1-1-1-0-1--3-3-3-3-1-3--3-3-3-3-1-3-6-6-6-6-6-6-8-8-8-8--8-6-5-3--------|
E|-1-1-1-1-0-1--3-3-3-3-1-3--3-3-3-3-1-3-6-6-6-6-6-6-8-8-8-8--8-6-5-3--------|



| /  slide up
| \  slide down
| h  hammer-on
| p  pull-off
| ~  vibrato
| +  harmonic
| x  Mute note
            
Hard to play? Try these video lessons and learn fast. | Correct




comments powered by Disqus
↑ Back to top | Tablatures and chords are parodies/interpretations of the original songs. You may use it for private study, scholarship, research or language learning purposes only