» » »

Alice Cooper, Blue Turk Bass tabs (ver.1)

Artists:  A B C D E F G H I J K L M N O P Q R S T U V W X Y Z # 

Blue Turk Bass tabs (ver.1)

Alice Cooper Tabs
Rating:
0/5 (0 votes)
Blue Turk lessons Tabs too difficult? Try these video lessons and learn fast
                Play the jazz

Intro
G----------------------------------------------------|
D----------------------------------------------------|
A-0h4-55-44-33-2-0h4-55---0h4-55-44-33-2-0h4-5-------|
E----------------------------------------------------|

Main Riff
G--------------------------------------|
D--------------------------------------|
A-0-3-0-55-0-3--2--0-3-0-55-0-3-2------|
E--------------------------------------|

Chorus
G--------------------------55-------------------------------------|
D----3----5-----7--10---------7---3----5----8---------------------|
A--5--5/7---7-88------7-55------5--5/7--7-88--5-5-8-8-8-88888888/-|
E-----------------------------------------------------------------|

Bridge
G--19-19-18-18-17-17-16-16-19-19-18-18-17-17-16-16--|
D---------------------------------------------------|
A---------------------------------------------------|
E---------------------------------------------------|

The groovy sax solo
G-----------------------------------7-5-3-2---------------------|
D-----------------------77-88-7-------------5-3-2---------------|play
A--0h4-55-77-88-7--4-55---------4/5--------------5-3------2-3---|twice
E----------------------------------------------------5-3-5------|

G--------------------------------------------------------------------------|
D----3---5---7----------3---5---7----------3---5---7----------3------------|
A-4-5-5/7-7/8-8-7-10-7-5-5/7-7/8-8-7-10-7-5-5/7-7/8-8-7-10-7-5-5-5-3-------|
E--------------------------------------------------------------------5-3h5-|

G-------------------------------------------|
D--------3---5---7----------3---5---7-------|
A-2-3-4-5-5/7-7/8-8-7-10-7-5-5/7-7/8-8-10-7-|
E-------------------------------------------|

G-------------------------------|
D---------2-3-2-----------------|
A--5-3-3-5------5-3-----2-3-4---|
E-----5------------5-3-5--------|

G--------------------------------------------------2-3-3-2--|
D----3----5----7-------------3----23----3-2-3---2-3---------|
A--55-5/77-7/88-8-77-10-7--55-5-55--5-55------55--------3-5-|
E-----------------------------------------------------------|

G--7-5-3-2-----------------------------------------------|
D---------5-3-2------------------------------------------|
A--------------5-3------2-3-4-55-5-55-5-55-5555555555555-|
E------------------5-3-5---------------------------------|

ending of solo
G-19-19-18-18-17-17-16-16-15-15-14-14-13-13-12-----------------------|
D--------------------------------------------------------------------|
A----------------------------------------------0h4-55-44-33-2-0h4-55-|
E--------------------------------------------------------------------|

back to main riff followed by chorus

outro
G-19-19-18-18-17-17-16-16-15-15-14-14-13-13-12-12-11-11-10-10-9-9-8-8-7-7-|
D-------------------------------------------------------------------------|
A-------------------------------------------------------------------------|
E-------------------------------------------------------------------------|

G-6-6-5-5-4-4-3-3-2-2-1-1-0-0----------------------------------3----3-3---|
D-----------------------------4-4-3-3-2-2-1-1-0-0-------------------------|
A-------------------------------------------------4-4-3-3-2-2-1-1-11-1-1/-|
E-------------------------------------------------------------------------|

G-19----19----19----19-----|
D-------------------19-----|
A--------------------------|
E--------------------------|
            
Submit corrections

comments powered by Disqus
↑ Back to top | Alice Cooper Bass for Blue Turk. Lyrics for acoustic guitar and electric guitar. Tablatures and chords are parodies/interpretations of the original songs. You may use it for private study, scholarship, research or language learning purposes only