» » »

Alice Cooper, Be My Lover Bass tabs (ver.1)

Artists:  A B C D E F G H I J K L M N O P Q R S T U V W X Y Z # 

Be My Lover Bass tabs (ver.1)

Alice Cooper Tabs
Rating:
3/5 (2 votes)
Be My Lover lessons Tabs too difficult? Try these video lessons and learn fast
                Album:Killer
Bassist:Dennis Dunaway

I've seen one tab for this, and it's not all correct. This should be.

Key:
/ = slide up
* = let it ring
x = times a number

Verse
G:------------------|
D:------------------|
A:---------------5-5|
E:5-7-3-3--5-7-8----|

Chorus
G:-----------------------------------------11-----9------------------|--------------|
D:--5---5---5---5---5---5/12-12-14-12----9----9-7---7-5-5-4-4-2-2-0-0|--------------|
A:------------------------------------9*-----------------------------|------------5*|
E:3---3---3---3---3---3----------------------------------------------|5x8-3x8-5x8---|

End 1
G:----|
D:----|
A:----|
E:5x31|

End 2
G:-----|
D:-----|
A:5*---|
E:---3*|

That's it. You can figure out the order your-self. Between end 1 and end 2, just play the 
            
Submit corrections

comments powered by Disqus
↑ Back to top | Alice Cooper Bass for Be My Lover. Lyrics for acoustic guitar and electric guitar. Tablatures and chords are parodies/interpretations of the original songs. You may use it for private study, scholarship, research or language learning purposes only