>
 >
Beautiful Flyaway

Beautiful Flyaway Guitar Tabs

Alice Cooper - Beautiful Flyaway chords, tabs, tablatures, lyrics

Guitar lessons | Add/correct | Request | Top 50 tabs Artists:  A B C D E F G H I J K L M N O P Q R S T U V W X Y Z 0-9

Beautiful Flyaway Guitar Tabs – Alice Cooper

CD, Sheet music, Poster

Do you like Beautiful Flyaway? Share with your friends now
Tabs
Band: Alice Cooper

 That's right I tabbed all of the piano part on the very early Alice Cooper album's song
Flyaway." This was actually pretty easy, I'm pretty sure it's %100 correct. I've only
guitar for exactly a year but my obsession with Alice Cooper gets me through the the 
and it makes it a lot more fun.

Keys
b = bend
r = release
\ = slide up neck
/ = slide down neck
h = hammer-on
p = pull-off
~ = hold note
w = whammy bar
v = vibrato

E---------------------------------------------------------------------|
B---------------------------------------------------------------------|
G-----------------------------------7---------------------------------|
D-----5-7----5------5-7----5------5----7-8-7--8-7-8-7-8-7------7-6-7-6|
A---7------8------7------8------7-------------------------10-8--------|
E-8-------------8-------------8---------------------------------------|

E---------------------------------------------------------------------|
B--------------5------5------5-8--5-8-5-6-5-6-5-6-5-------------------|
G----------5-7---5--7---5--7------------------------7-5-7-7-7-7-7-7-7-|
D-7-6-----------------------------------------------------------------|
A-----8-7-------------------------------------------------------------|
E---------------------------------------------------------------------|

E-------------------|
B-------------------|
G-7-4-4-4-4-4-4-4-4-|
D-------------------|
A-------------------|
E-------------------|

“Beautiful flyaway
Somewhere like Holy Days
Wonder what brought me back to earth”
E--------------------------------------------------------------|
B--------------------------------------------------------------|
G-----------------------------------7--------------------------|
D-----5-7----5------5-7----5------5----7-8-7--8-7-8-7-8-7------|
A---7------8------7------8------7-------------------------10-8-|
E-8-------------8-------------8--------------------------------|

“Haven't I always been here
Let's have another meal dear
Later I think I'll disappear into the bishop's hall
And take a look at what we offer
DDT poisoning me changing my relativity
What's it going to be"
E---------------------------------------------------------------------|
B---------------------------------------------------------------------|
G---------------------------------------7-----------------------------|
D-----5-7----5-7------5-7----5-7------5----7-8-7--8-7-8-7-8-7------7-6|
A---7------8--------7------8--------7-------------------------10-8----|
E-8---------------8---------------8-----------------------------------|

E---------------------------------------------------------------------|
B------------------5------5------5-8--5-8-5-6-5-6-5-6-5---------------|
G--------------5-7---5--7---5--7------------------------7-5-7-7-7-7-7-|
D-7-6-7-6-------------------------------------------------------------|
A---------8-7---------------------------------------------------------|
E---------------------------------------------------------------------|

E-------------------------------------------------------|
B-----------------------5-5-5-5-5-5-5-5-----------------|
G-7-7-7-4-4-4-4-4-4-4-4-----------------7-7-7-7-7-7-7-7-|
D-------------------------------------------------------|
A-------------------------------------------------------|
E-------------------------------------------------------|

Guitar:
E-----------------------------|
B-6-5-3--8-6-5--10-8-6--12~~--|
G-----------------------------|
D-----------------------------|
A-----------------------------|
E-----------------------------|

“Da da da da d-da
Later I think I'll disappear into another room
And take a look inside the till
Lovely days, human race journeys that take us to the end
Aah...”
E---------------------------------------------------------------------|
B---------------------------------------------------------------------|
G-----------------------------------7---------------------------------|
D-----5-7----5------5-7----5------5----7-8-7--8-7-8-7-8-7------7-6-7-6|
A---7------8------7------8------7-------------------------10-8--------|
E-8-------------8-------------8---------------------------------------|

E---------------------------------------------------------------------|
B--------------5------5------5-8--5-8-5-6-5-6-5-6-5-------------------|
G----------5-7---5--7---5--7------------------------7-5-7-7-7-7-7-7-7-|
D-7-6-----------------------------------------------------------------|
A-----8-7-------------------------------------------------------------|
E---------------------------------------------------------------------|

E----------------------------------------|
B----------------------------------------|
G-7-4-4-4-4-4-4-4-4-5-5-5-5-5-5-5-5------|
D------------------------------------7~~-|
A----------------------------------------|
E----------------------------------------|

“Haven't we always been here
Sharing one love and one fear
Some day you'll know that life is really, really all about you”
E------------------------------------------------------------------|
B------------------------------------------------------------------|
G---------------------------------------7--------------------------|
D-----5-7----5-7------5-7----5-7------5----7-8-7--8-7-8-7-8-7------|
A---7------8--------7------8--------7-------------------------10-8-|
E-8---------------8---------------8--------------------------------|

“So come and look inside
You'll be surprised to find
Later I think I'll disappear into another womb
And take a look inside the mens' room
Haven't I given you everything that I could give
Where do you live
Aah...”
E---------------------------------------------------------------------|
B---------------------------------------------------------------------|
G-----------------------------------7---------------------------------|
D-----5-7----5------5-7----5------5----7-8-7--8-7-8-7-8-7------7-6-7-6|
A---7------8------7------8------7-------------------------10-8--------|
E-8-------------8-------------8---------------------------------------|

E---------------------------------------------------------------------|
B--------------5------5------5-8--5-8-5-6-5-6-5-6-5-------------------|
G----------5-7---5--7---5--7------------------------7-5-7-7-7-7-7-7-7-|
D-7-6-----------------------------------------------------------------|
A-----8-7-------------------------------------------------------------|
E---------------------------------------------------------------------|

E---------------------------------------------------|
B-------------------5-5-5-5-5-5-5-5-----------------|
G-7-4-4-4-4-4-4-4-4-----------------7-7-7-7-7-7-7-7-|
D---------------------------------------------------|
A---------------------------------------------------|
E---------------------------------------------------|

Guitar:
E-----------------------------|
B-6-5-3--8-6-5--10-8-6--12~~--|
G-----------------------------|
D-----------------------------|
A-----------------------------|
E-----------------------------|

Piano Solo:
E---------------------------------------------------------------------|
B--------------------------------------------------15-----------------|
G-------12-14-----12--------12-14-----12--------12-----14-15-14--15-14|
D----14--------15--------14--------15--------14-----------------------|
A-15------------------15------------------15--------------------------|
E---------------------------------------------------------------------|

E---------------------------------------------------------------------|
B---------------------------------------------------------------------|
G-15-14-15-14-12-----------12-14-----12---------12-14-----12--------12|
D----------------15-----14--------15---------14--------15--------14---|
A--------------------15-------------------15------------------15------|
E---------------------------------------------------------------------|

E-----------------------------------------------------------------|
B-15--------------------------------------------------------------|
G-----14-15-14--14-15-14-15-14-15-12-----14-13-14-13-14-13--------|
D------------------------------------15--------------------15-14--|
A-----------------------------------------------------------------|
E-----------------------------------------------------------------|

E--------12--------12--------12-15--12-15-12-13-12-13-12-13-12--------|
B--13-14----15--14----15--14------------------------------------15-13-|
G---------------------------------------------------------------------|
D---------------------------------------------------------------------|
A---------------------------------------------------------------------|
E---------------------------------------------------------------------|

E-------------------------------------------------------12-12-12-12-12|
B-15-15-15-15-15-15-15-15-15-12-12-12-12-12-12-12-12-12---------------|
G---------------------------------------------------------------------|
D---------------------------------------------------------------------|
A---------------------------------------------------------------------|
E---------------------------------------------------------------------|

E-12-12-12-12----------------------------|
B-------------15-15-15-15-15-15-15-15-15-|
G----------------------------------------|
D----------------------------------------|
A----------------------------------------|
E----------------------------------------|

Guitar:
E-----------------------------|
B-6-5-3--8-6-5--10-8-6--12~~--|
G-----------------------------|
D-----------------------------|
A-----------------------------|
E-----------------------------|





Comments


Popular Alice Cooper tabs & chords
Sick Things Bass Tabs
Woman Of Mass Distraction Bass Tabs
Every Woman Has A Name 1 Chords
Stolen Prayer Chords
Billion Dollar Babies Tabs
Dead Babies 2 Tabs
Only Women Bleed 2 Tabs
Poison 1 Tabs
Sideshow Tabs
You Look Good In Rags Ukulele


Song lyrics



↑ Back to top | Tablatures and chords are parodies/interpretations of the original songs. You may use it for private study, scholarship, research or language learning purposes only
© 2014 AZChords.com Contact us | Privacy policy | DMCA | Add/correct tabs | Request tabs | Top 50 tabs