>
 >
Aspirin Damage

Aspirin Damage Guitar Tabs

Alice Cooper - Aspirin Damage chords, tabs, tablatures, lyrics

Guitar lessons | Add/correct | Request | Top 50 tabs Artists:  A B C D E F G H I J K L M N O P Q R S T U V W X Y Z 0-9

Aspirin Damage Guitar Tabs – Alice Cooper

CD, Sheet music, Poster

Do you like Aspirin Damage? Share with your friends now
Tabs
rock    
|tablatures   |lyrics   |discussion forums   |more tabs @ XGuitar.com

 "Aspirin Damage" by Alice Cooper

  From the album Flush the Fashion (1980)

  Sparkinthedark3


  \= slide down   /=slide up   .= mute chord with palm



    "I get these killer headaches.            I get one every day."
    "I balance my Excedrin                     and Anacins in stacks."
E-|---------------------------------------------------------------------------|
B-|---------------------------------------------------------------------------|
G-|---------------------7-------------------------------------7---------------|
D-|--------------7------7-----------7----5--------------7-----7-------5----3--|
A-|--------------7------5-----------7----5--------------7-----5-------5----3--|
E-|--------------5------------------5----3--------------5-------------3----1--|


    "I wake up with a migraine      since you   ran   away."
    "I'm a pain reliever junkie. I got a Bayer on my back."
E-|---------------------------------------------------------------------------|
B-|---------------------------------------------------------------------------|
G-|-------------------5-------------------------------5----------7------------|
D-|------------5------5------------5-----3------5-----5----------7----5-------|
A-|------------5------3------------5-----3------5-----3----------5----5-------|
E-|------------3-------------------3-----1------3---------------------3-------|


    "I got a load of tension         burning up my neck.         Something's
    "I went to see the doctor.     He walked me down the hall.  Said,
E-|---------------------------------------------------------------------------|
B-|---------------------------------------------------------------------------|
G-|------------------7-----------------------------7--------------------------|
D-|----------7-------7-------7----5----------7-----7------5---3---------------|
A-|----------7-------5-------7----5----------7-----5------5---3---------------|
E-|----------5---------------5----3----------5------------3---1---------------|


    "wrong with my suspension.     So, pass those tablets to this wreck."
    ""Strip down till your naked. Your suit, your tie and        all.""
                   (Got to Chorus two after second verse.)
E-|---------------------------------------------------------------------------|
B-|---------------------------------------------------------------------------|
G-|-------------------5-------------------------------------------5-----------|
D-|-------------5-----5----------------5----------3-------5-------5-----------|
A-|-------------5-----3----------------5----------3-------5-------3-----------|
E-|-------------3----------------------3----------1-------3-------------------|


                                      "Aspirin     damage."
E-|---------------------------------------------------------------------------|
B-|---------------------------------------------------------------------------|
G-|------7-----------------.--.--.--.--.--.--.--.--.--.--.--.--.--.--.--.-----|
D-|--7---7---9-9-9-9-9\----9--9--9--9--9--9--9--9--9--9--9--9--9--9--9--9-----|
A-|--7---5---9-9-9-9-9\----7--7--7--7--7--7--7--7--7--7--7--7--7--7--7--7-----|
E-|--5-------7-7-7-7-7\-------------------------------------------------------|


                "Aspirin     damage.                              Kills the
E-|---------------------------------------------------------------------------|
B-|---------------------------------------------------------------------------|
G-|---------------------------------------------------------------------------|
D-|--.--.--.--.--.--.--.--.--.--.--.--.--.--.--.--.---.--.--.--.--.--.--.--.--|
A-|--9--9--9--9--9--9--9--9--9--9--9--9--9--9--9--9---7--7--7--7--7--7--7--7--|
E-|--7--7--7--7--7--7--7--7--7--7--7--7--7--7--7--7---5--5--5--5--5--5--5--5--|


    "pain, it destroys the    brain."
E-|---------------------------------------------------------------------------|
B-|---------------------------------------------------------------------------|
G-|-----------------------------------------------------5---------7-----------|
D-|--.--.--.--.--.--.--.--.---.--.--.--.--.--.--.--.----5----7----7----9------|
A-|--7--7--7--7--7--7--7--7---2--2--2--2--2--2--2--2----3----7----5----9------|
E-|--5--5--5--5--5--5--5--5---0--0--0--0--0--0--0--0---------5---------7------|


    "No one told me 'bout                                         aspirin
E-|---------------------------------------------------------------------------|
B-|---------------------------------------------------------------------------|
G-|--.--.--.--.--.--.--.--.--.--.--.--.--.--.--.--.---------------------------|
D-|--9--9--9--9--9--9--9--9--9--9--9--9--9--9--9--9---.--.--.--.--.--.--.--.--|
A-|--7--7--7--7--7--7--7--7--7--7--7--7--7--7--7--7---9--9--9--9--9--9--9--9--|
E-|---------------------------------------------------7--7--7--7--7--7--7--7--|


    "damage.    Sometimes I   find myself shaking from  the   medication
E-|---------------------------------------------------------------------------|
B-|---------------------------------------------------------------------------|
G-|-----------------------------------------------------------.--.--.--.------|
D-|--.--.--.--.--.--.--.--.---.---.---.---.---.---.---.---.---5--5--5--5------|
A-|--9--9--9--9--9--9--9--9---7---7---7---7---7---7---7---7---3--3--3--3------|
E-|--7--7--7--7--7--7--7--7---5---5---5---5---5---5---5---5-------------------|


    "taken, oh yeah."
E-|---------------------------------------------------------------------------|
B-|---------------------------------------------------------------------------|
G-|--.--.--.--.--------------------------8---------10---------12\-------------|
D-|--7--7--7--7---.--.--.--.--.--.--.----8---10----10---12----12\-------------|
A-|--5--5--5--5---5--5--5--5--5--5--5----6---10----8----12----10\-------------|
E-|---------------3--3--3--3--3--3--3--------8----------10--------------------|





   Chorus two
                                      "Aspirin     damage."
E-|---------------------------------------------------------------------------|
B-|---------------------------------------------------------------------------|
G-|------7-----------------.--.--.--.--.--.--.--.--.--.--.--.--.--.--.--.-----|
D-|--7---7---9-9-9-9-9\----9--9--9--9--9--9--9--9--9--9--9--9--9--9--9--9-----|
A-|--7---5---9-9-9-9-9\----7--7--7--7--7--7--7--7--7--7--7--7--7--7--7--7-----|
E-|--5-------7-7-7-7-7\-------------------------------------------------------|


                "Aspirin     damage.                              Kills the
E-|---------------------------------------------------------------------------|
B-|---------------------------------------------------------------------------|
G-|---------------------------------------------------------------------------|
D-|--.--.--.--.--.--.--.--.--.--.--.--.--.--.--.--.---.--.--.--.--.--.--.--.--|
A-|--9--9--9--9--9--9--9--9--9--9--9--9--9--9--9--9---7--7--7--7--7--7--7--7--|
E-|--7--7--7--7--7--7--7--7--7--7--7--7--7--7--7--7---5--5--5--5--5--5--5--5--|


    "pain, it destroys the    brain."
E-|---------------------------------------------------------------------------|
B-|---------------------------------------------------------------------------|
G-|-----------------------------------------------------5---------7-----------|
D-|--.--.--.--.--.--.--.--.---.--.--.--.--.--.--.--.----5----7----7----9------|
A-|--7--7--7--7--7--7--7--7---2--2--2--2--2--2--2--2----3----7----5----9------|
E-|--5--5--5--5--5--5--5--5---0--0--0--0--0--0--0--0---------5---------7------|


                "Aspirin     damage.           My               disadvantage."
E-|---------------------------------------------------------------------------|
B-|---------------------------------------------------------------------------|
G-|--.--.--.--.--.--.--.--.--.--.--.--.--.--.--.--.---------------------------|
D-|--9--9--9--9--9--9--9--9--9--9--9--9--9--9--9--9---.--.--.--.--.--.--.--.--|
A-|--7--7--7--7--7--7--7--7--7--7--7--7--7--7--7--7---9--9--9--9--9--9--9--9--|
E-|---------------------------------------------------7--7--7--7--7--7--7--7--|


               "Sometimes I   find myself shaking from  the   medication
E-|---------------------------------------------------------------------------|
B-|---------------------------------------------------------------------------|
G-|-----------------------------------------------------------.--.--.--.------|
D-|--.--.--.--.--.--.--.--.---.---.---.---.---.---.---.---.---5--5--5--5------|
A-|--9--9--9--9--9--9--9--9---7---7---7---7---7---7---7---7---3--3--3--3------|
E-|--7--7--7--7--7--7--7--7---5---5---5---5---5---5---5---5-------------------|


    "taken, oh yeah."
E-|---------------------------------------------------------------------------|
B-|---------------------------------------------------------------------------|
G-|--.--.--.--.--------------------------8---------10---------12--------------|
D-|--7--7--7--7-----5--5--5--5--5--5\----8---10----10---12----12---14---------|
A-|--5--5--5--5-----5--5--5--5--5--5\----6---10----8----12----10---14---------|
E-|-----------------3--3--3--3--3--3\---------8---------10---------12---------|



                           "Aspirin                  damage."
E-|--------------------------------------------------------------------------|
B-|--------------------------------------------------------------------------|
G-|--14---------16\----------------------------------------------------------|
D-|--14---16----16\------.--.--.--.--.--.--.--.--.--.--.--.--.--.--.--.------|
A-|--12---16----14\------9--9--9--9--9--9--9--9--9--9--9--9--9--9--9--9------|
E-|-------14-------------7--7--7--7--7--7--7--7--7--7--7--7--7--7--7--7------|


    "Aspirin                      damage.                   Kills the pain,
E-|---------------------------------------------------------------------------|
B-|---------------------------------------------------------------------------|
G-|---------------------------------------------------.--.--.--9--.--9--.--.--|
D-|--.--.--.--.--.--.--.--.--.--.--.--.--.--.--.--.---9--9--9--9--9--9--9--9--|
A-|--4--4--4--4--4--4--4--4--4--4--4--4--4--4--4--4---7--7--7-----7-----7--7--|
E-|--2--2--2--2--2--2--2--2--2--2--2--2--2--2--2--2---0--0--0-----0-----0--0--|


    "it     destroys    the   brain."
E-|---------------------------------------------------------------------------|
B-|---------------------------------------------------------------------------|
G-|--.--.--.--.--.--.--.--.---------------------------------------------------|
D-|--9--9--9--9--9--9--9--9---.--.--.--.--.--.--.--.----5---2----7---4/-------|
A-|--7--7--7--7--7--7--7--7---9--9--9--9--9--9--9--9----5---2----7---4/-------|
E-|--0--0--0--0--0--0--0--0---7--7--7--7--7--7--7--7----3---0----5---2/-------|


                "No    one    told    me      'bout               aspirin
E-|---------------------------------------------------------------------------|
B-|---------------------------------------------------------------------------|
G-|---------------------------------------------------------------------------|
D-|--.--.--.--.--.--.--.--.--.--.--.--.--.--.--.--.---.--.--.--.--.--.--.--.--|
A-|--9--9--9--9--9--9--9--9--9--9--9--9--9--9--9--9---4--4--4--4--4--4--4--4--|
E-|--7--7--7--7--7--7--7--7--7--7--7--7--7--7--7--7---2--2--2--2--2--2--2--2--|


    "damage.    Sometimes I   find myself shaking from  the   medication
E-|---------------------------------------------------------------------------|
B-|---------------------------------------------------------------------------|
G-|---------------------------------------------------------------------------|
D-|--.--.--.--.--.--.--.--.---.---.---.---.---.---.---.---.---.--.--.--.------|
A-|--4--4--4--4--4--4--4--4---2---2---2---2---2---2---2---2---5--5--5--5------|
E-|--2--2--2--2--2--2--2--2---0---0---0---0---0---0---0---0---3--3--3--3------|


    "taken, oh yeah."
E-|---------------------------------------------------------------------------|
B-|---------------------------------------------------------------------------|
G-|-----------------.--.--.--.--.--.------------------------------------------|
D-|--.--.--.--.-----7--7--7--7--7--7--7\----5----2----7----4------------------|
A-|--7--7--7--7-----5--5--5--5--5--5--5\----5----2----7----4------------------|
E-|--5--5--5--5-----------------------------3----0----5----2------------------|


                "Aspirin                  damage."
E-|--------------------------------------------------------------------------|
B-|--------------------------------------------------------------------------|
G-|--------------------------------------------------------------------------|
D-|--.--.--.--.--.--.--.--.--.--.--.--.--.--.--.--.--------------------------|
A-|--9--9--9--9--9--9--9--9--9--9--9--9--9--9--9--9--------------------------|
E-|--7--7--7--7--7--7--7--7--7--7--7--7--7--7--7--7--------------------------|


    "Aspirin                      damage.                   Kills the pain,
E-|---------------------------------------------------------------------------|
B-|---------------------------------------------------------------------------|
G-|---------------------------------------------------.--.--.--.--.--.--.--.--|
D-|--.--.--.--.--.--.--.--.--.--.--.--.--.--.--.--.---9--9--9--9--9--9--9--9--|
A-|--4--4--4--4--4--4--4--4--4--4--4--4--4--4--4--4---7--7--7--7--7--7--7--7--|
E-|--2--2--2--2--2--2--2--2--2--2--2--2--2--2--2--2---0--0--0--0--0--0--0--0--|


    "it     destroys    the   brain."
E-|---------------------------------------------------------------------------|
B-|---------------------------------------------------------------------------|
G-|--.--.--.--.--.--.--.--.---------------------------------------------------|
D-|--9--9--9--9--9--9--9--9---.--.--.--.--.--.--.--.----5---2----7---4--------|
A-|--7--7--7--7--7--7--7--7---9--9--9--9--9--9--9--9----5---2----7---4--------|
E-|--0--0--0--0--0--0--0--0---7--7--7--7--7--7--7--7----3---0----5---2--------|


                "No    one    told    me      'bout               aspirin
E-|---------------------------------------------------------------------------|
B-|---------------------------------------------------------------------------|
G-|---------------------------------------------------------------------------|
D-|--.--.--.--.--.--.--.--.--.--.--.--.--.--.--.--.---.--.--.--.--.--.--.--.--|
A-|--9--9--9--9--9--9--9--9--9--9--9--9--9--9--9--9---4--4--4--4--4--4--4--4--|
E-|--7--7--7--7--7--7--7--7--7--7--7--7--7--7--7--7---2--2--2--2--2--2--2--2--|


    "damage.    Sometimes I   find myself shaking from  the   medication
E-|---------------------------------------------------------------------------|
B-|---------------------------------------------------------------------------|
G-|---------------------------------------------------------------------------|
D-|--.--.--.--.--.--.--.--.---.---.---.---.---.---.---.---.---.--.--.--.------|
A-|--4--4--4--4--4--4--4--4---2---2---2---2---2---2---2---2---5--5--5--5------|
E-|--2--2--2--2--2--2--2--2---0---0---0---0---0---0---0---0---3--3--3--3------|


    "taken, oh yeah."                                     (Fade out)
E-|---------------------------------------------------------------------------|
B-|---------------------------------------------------------------------------|
G-|-----------------.--.--.--.--.--.--.---------------------------------------|
D-|--.--.--.--.-----7--7--7--7--7--7--7-----5----2----7-----------------------|
A-|--7--7--7--7-----5--5--5--5--5--5--5-----5----2----7-----------------------|
E-|--5--5--5--5-----------------------------3----0----5-----------------------|





Comments


Popular Alice Cooper tabs & chords
Clones Bass Tabs
Desperado Chords
Lost In America Chords
Something To Remember Me By 1 Chords
Im Eighteen Intro Drum Tabs
Caught In A Dream Tabs
Go To Hell Tabs
Keeping Halloween Alive Tabs
No More Mr Nice Guy (Intro) Tabs
Only Women Bleed Ukulele


Song lyrics



↑ Back to top | Tablatures and chords are parodies/interpretations of the original songs. You may use it for private study, scholarship, research or language learning purposes only
© 2014 AZChords.com Contact us | Privacy policy | DMCA | Add/correct tabs | Request tabs | Top 50 tabs