» » »

Im So Tired Of Being Alone Bass tabs (ver.1)

Artists:  A B C D E F G H I J K L M N O P Q R S T U V W X Y Z # 

Im So Tired Of Being Alone Bass tabs (ver.1)

Al Green
Rating:
0/5 (0 votes)

Hard to play? Try these video lessons and learn fast.
                G|-----------------|-------------2---|-----------------|-------------2---|
D|---------------5-|-----------------|---------------5-|-----------------|
A|-3---3-----------|-3---3-----------|-3---3-----------|-3---3-----------|
E|-----------------|-----------------|-----------------|-----------------|
   1 + 2 + 3 + 4 +   1 + 2 + 3 + 4 +   1 + 2 + 3 + 4 +   1 + 2 + 3 + 4 +   

G|-----------------|-------------2---|-----------------|-------------2---|
D|---------------5-|-----------------|---------------5-|-----------------|
A|-3---3-----------|-3---3-----------|-3---3-----------|-3---3-----------|
E|-----------------|-----------------|-----------------|-----------------|
   1 + 2 + 3 + 4 +   1 + 2 + 3 + 4 +   1 + 2 + 3 + 4 +   1 + 2 + 3 + 4 +   

G|-----------------|-------------2---|-----------------|-------------2---|
D|---------------5-|-----------------|---------------5-|-----------------|
A|-3---3-----------|-3---3-----------|-3---3-----------|-3---3-----------|
E|-----------------|-----------------|-----------------|-----------------|
   1 + 2 + 3 + 4 +   1 + 2 + 3 + 4 +   1 + 2 + 3 + 4 +   1 + 2 + 3 + 4 +   

G|-----------------|-----------------|-----------------|-----------------|
D|---------------5-|-----------------|-----------------|-----------------|
A|-3---3-----------|-3---3-----------|-----------------|-----------------|
E|-----------------|-----------------|-5---5---------X-|-5---5---------X-|
   1 + 2 + 3 + 4 +   1 + 2 + 3 + 4 +   1 + 2 + 3 + 4 +   1 + 2 + 3 + 4 +   

G|-----------------|-----------------|-----------------|-----------------|
D|-----------------|-----------------|-----------------|-----------------|
A|-----------------|-----------------|-5---5-----------|-------------5---|
E|-5---5---------X-|-5---5-----------|---------7-------|-5---5---7-------|
   1 + 2 + 3 + 4 +   1 + 2 + 3 + 4 +   1 + 2 + 3 + 4 +   1 + 2 + 3 + 4 +   

G|-----------------|-----------------|-----------------|-----------------|
D|-----------------|-----------------|-----------------|-----------------|
A|-----5-----------|-------------5---|-----5-----------|-----------------|
E|---------7-------|-5---5---7-------|---------7-------|-5---5---6---6---|
   1 + 2 + 3 + 4 +   1 + 2 + 3 + 4 +   1 + 2 + 3 + 4 +   1 + 2 + 3 + 4 +   

G|-----------------|-----------------|-----------------|-----------------|
D|-----------------|-----------------|-----------------|-----------------|
A|-2---2-----------|-------------2---|-----2---2-------|-2---------------|
E|---------4-------|-2---2---4-------|-----------------|-----0---1---2---|
   1 + 2 + 3 + 4 +   1 + 2 + 3 + 4 +   1 + 2 + 3 + 4 +   1 + 2 + 3 + 4 +   

G|-----------------|-----------------|-----------------|-----------------|
D|---------2-------|---------2-------|---------2-------|---------2-------|
A|-----------------|-0---0-----------|-----------------|-0---0-----------|
E|-3---------------|-------------1---|-3---------------|-------------1---|
   1 + 2 + 3 + 4 +   1 + 2 + 3 + 4 +   1 + 2 + 3 + 4 +   1 + 2 + 3 + 4 +   

G|-----------------|-----------------|-----------------|-----------------|
D|---------2-------|---------2-------|-----------------|-----------------|
A|-----------------|-0---0-----------|-----------------|-----------------|
E|-3---------------|-------------1---|-3---3-----------|-3---3-----------|
   1 + 2 + 3 + 4 +   1 + 2 + 3 + 4 +   1 + 2 + 3 + 4 +   1 + 2 + 3 + 4 +   

G|-----------------|-----------------|-----------------|-----------------|
D|-----------------|-----------------|-----------------|-----------------|
A|-----------------|-----------------|-----------------|-3---3-----------|
E|-3---3-----------|-3---3-----------|-3---3-----------|---------5-------|
   1 + 2 + 3 + 4 +   1 + 2 + 3 + 4 +   1 + 2 + 3 + 4 +   1 + 2 + 3 + 4 +   

G|-----------------|-----------------|-----------------|-----------------|
D|-----------------|-----------------|-----------------|-----------------|
A|-3---3-------3---|-----3-----------|-3---3-------3---|-----3-----------|
E|---------5-------|---------5-------|---------5-------|---------5-------|
   1 + 2 + 3 + 4 +   1 + 2 + 3 + 4 +   1 + 2 + 3 + 4 +   1 + 2 + 3 + 4 +   

G|-----------------|-----------------|-----------------|-----------------|
D|-----------------|-----------------|-----------------|-----------------|
A|-3---3-------3---|-----------------|-----------------|-----------------|
E|---------5-------|-5---5-----------|-5---5---2---4---|-5---5-----------|
   1 + 2 + 3 + 4 +   1 + 2 + 3 + 4 +   1 + 2 + 3 + 4 +   1 + 2 + 3 + 4 +   

G|-----------------|-----------------|-----------------|-----------------|
D|-----------------|-----------------|-----------------|-----------------|
A|-----------------|-5---5-----------|-------------5---|-----5-----------|
E|-5---5-----------|---------7-------|-5---5---7-------|---------7-------|
   1 + 2 + 3 + 4 +   1 + 2 + 3 + 4 +   1 + 2 + 3 + 4 +   1 + 2 + 3 + 4 +   

G|-----------------|-----------------|-----------------|-----------------|
D|-----------------|-----------------|-----------------|-----------------|
A|-------------5---|-----5-----------|-----------------|-2---2-----------|
E|-5---5---7-------|---------7-------|-5---5---6---6---|---------4-------|
   1 + 2 + 3 + 4 +   1 + 2 + 3 + 4 +   1 + 2 + 3 + 4 +   1 + 2 + 3 + 4 +   

G|-----------------|-----------------|-----------------|
D|-----------------|-----------------|-----------------|
A|-------------2---|-----2---2-------|-2---------------|
E|-2---2---4-------|-----------------|-----0---1---2---|
   1 + 2 + 3 + 4 +   1 + 2 + 3 + 4 +   1 + 2 + 3 + 4 +   

G|-----------------|-----------------|-----------------|-----------------|
D|---------2-------|---------2-------|---------2-------|---------2-------|
A|-----------------|-0---0-----------|-----------------|-0---0-----------|
E|-3---------------|-------------1---|-3---------------|-------------1---|
   1 + 2 + 3 + 4 +   1 + 2 + 3 + 4 +   1 + 2 + 3 + 4 +   1 + 2 + 3 + 4 +   

G|-----------------|-----------------|-----------------|-----------------|
D|---------2-------|---------2-------|-----------------|-----------------|
A|-----------------|-0---0-----------|-----------------|-----------------|
E|-3---------------|-------------1---|-3---3-----------|-3---3-----------|
   1 + 2 + 3 + 4 +   1 + 2 + 3 + 4 +   1 + 2 + 3 + 4 +   1 + 2 + 3 + 4 +   

G|-----------------|-----------------|-----------------|
D|-----------------|-----------------|-----------------|
A|-----------------|-----------------|-----------------|
E|-3---3-----------|-3---3-----------|-3---3-----------|
   1 + 2 + 3 + 4 +   1 + 2 + 3 + 4 +   1 + 2 + 3 + 4 +   

G|-----------------|-----------------|-----------------|-----------------|
D|-----------------|-----------------|-----------------|-----------------|
A|-5---5-----------|-------------5---|-----5-----------|-------------5---|
E|---------7-------|-5---5---7-------|---------7-------|-5---5---7-------|
   1 + 2 + 3 + 4 +   1 + 2 + 3 + 4 +   1 + 2 + 3 + 4 +   1 + 2 + 3 + 4 +   

G|-----------------|-----------------|-----------------|-----------------|
D|-----------------|-----------------|-----------------|-----------------|
A|-----5-----------|-----------------|-2---2-----------|-2---2-----------|
E|---------7-------|-5---5---6-------|-----------------|---------0---1---|
   1 + 2 + 3 + 4 +   1 + 2 + 3 + 4 +   1 + 2 + 3 + 4 +   1 + 2 + 3 + 4 +   

G|-----------------|-----------------|-----------------|-----------------|
D|-----------------|-----------------|-----------------|-----------------|
A|-5---5-----------|-------------5---|-----5-----------|-------------5---|
E|---------7-------|-5---5---7-------|---------7-------|-5---5---7-------|
   1 + 2 + 3 + 4 +   1 + 2 + 3 + 4 +   1 + 2 + 3 + 4 +   1 + 2 + 3 + 4 +   

G|-----------------|-----------------|-----------------|-----------------|
D|-----------------|-----------------|-----------------|-----------------|
A|-----5-----------|-----------------|-2---2---------0h|-2-0h2-----------|
E|---------7-------|-5---5---6-------|-----------------|-----------------|
   1 + 2 + 3 + 4 +   1 + 2 + 3 + 4 +   1 + 2 + 3 + 4 +   1 + 2 + 3 + 4 +   

G|-----------------|-----------------|-----------------|-----------------|
D|-----------------|-----------------|-------7/9-------|-7---7---9-------|
A|-5---5-----------|-------------5---|-----5-----------|-------------5---|
E|---------7-------|-5---5---7-------|-----------------|-----------------|
   1 + 2 + 3 + 4 +   1 + 2 + 3 + 4 +   1 + 2 + 3 + 4 +   1 + 2 + 3 + 4 +   

G|-----------------|-----------------|-----------------|-----------------|
D|-----------------|-----------------|-----------------|-----------------|
A|-----5-----------|-----------------|-2---2---------0h|-2-0h2-----------|
E|---------7-------|-5---6---7-------|-----------------|-----------------|
   1 + 2 + 3 + 4 +   1 + 2 + 3 + 4 +   1 + 2 + 3 + 4 +   1 + 2 + 3 + 4 +   

G|-----------------|-----------------|-----------------|-----------------|
D|-----------------|-----------------|-------7/9-------|-7---7---9-------|
A|-5---5-----------|-------------5---|-----5-----------|-------------5---|
E|---------7-------|-5---5---7-------|-----------------|-----------------|
   1 + 2 + 3 + 4 +   1 + 2 + 3 + 4 +   1 + 2 + 3 + 4 +   1 + 2 + 3 + 4 +   

G|-----------------|-----------------|-----------------|-----------------|
D|-----------------|-----------------|-----------------|-----------------|
A|-----5-----------|-------------5---|-2---2---------0h|-2-0h2-----------|
E|---------7-------|-5---5---7-------|-----------------|-----------------|
   1 + 2 + 3 + 4 +   1 + 2 + 3 + 4 +   1 + 2 + 3 + 4 +   1 + 2 + 3 + 4 +   

G|-----------------|-----------------|-----------------|-----------------|
D|-----------------|-----------------|-------7/9-------|-7---7---9-------|
A|-5---5-----------|-------------5---|-----5-----------|-------------5---|
E|---------7-------|-5---5---7-------|-----------------|-----------------|
   1 + 2 + 3 + 4 +   1 + 2 + 3 + 4 +   1 + 2 + 3 + 4 +   1 + 2 + 3 + 4 +   

G|-----------------|-----------------|-----------------|-----------------|
D|-----------------|-----------------|-----------------|-----------------|
A|-----5-----------|-----------------|-2---2---------0h|-2-0h2-------2p0-|
E|---------7-------|-5---5---6-------|-----------------|-----------------|
   1 + 2 + 3 + 4 +   1 + 2 + 3 + 4 +   1 + 2 + 3 + 4 +   1 + 2 + 3 + 4 +   

G|-----------------|-----------------|-----------------|-----------------|
D|-----------------|-----------------|-------7/9-------|-7---7---9-------|
A|-5---5-----------|-------------5---|-----5-----------|-------------5---|
E|---------7-------|-5---5---7-------|-----------------|-----------------|
   1 + 2 + 3 + 4 +   1 + 2 + 3 + 4 +   1 + 2 + 3 + 4 +   1 + 2 + 3 + 4 +   

G|-----------------|-----------------|-----------------|-----------------|
D|-----------------|-----------------|-----------------|-----------------|
A|-----5-----------|-----------------|-2---2---------0h|-2-0h2-------2p0-|
E|---------7-------|-5---5---6-------|-----------------|-----------------|
   1 + 2 + 3 + 4 +   1 + 2 + 3 + 4 +   1 + 2 + 3 + 4 +   1 + 2 + 3 + 4 +   

G|-----------------|-----------------|-----------------|-----------------|
D|-----------------|-----------------|-------7/9-------|-7---7---9-------|
A|-5---5-----------|-------------5---|-----5-----------|-------------5---|
E|---------7-------|-5---5---7-------|-----------------|-----------------|
   1 + 2 + 3 + 4 +   1 + 2 + 3 + 4 +   1 + 2 + 3 + 4 +   1 + 2 + 3 + 4 +   

G|-----------------|-----------------|-----------------|-----------------|
D|-----------------|-----------------|-----------------|-----------------|
A|-----5-----------|-----------------|-2---2---------0h|-2-0h2-------2p0-|
E|---------7-------|-5---5---6-------|-----------------|-----------------|
   1 + 2 + 3 + 4 +   1 + 2 + 3 + 4 +   1 + 2 + 3 + 4 +   1 + 2 + 3 + 4 +   

G|-----------------|-----------------|-----------------|-----------------|
D|-----------------|-----------------|-------7/9-------|-7---7---9-------|
A|-5---5-----------|-------------5---|-----5-----------|-------------5---|
E|---------7-------|-5---5---7-------|-----------------|-----------------|
   1 + 2 + 3 + 4 +   1 + 2 + 3 + 4 +   1 + 2 + 3 + 4 +   1 + 2 + 3 + 4 +   

G|-----------------|-----------------|-----------------|-----------------|
D|-------7/9-------|-----------------|-----------------|-----------------|
A|-----5-----------|-------------2p0-|-2---2---------0h|-2-0h2-------2p0-|
E|-----------------|-5---5---6-------|-----------------|-----------------|
   1 + 2 + 3 + 4 +   1 + 2 + 3 + 4 +   1 + 2 + 3 + 4 +   1 + 2 + 3 + 4 +   

Fade…
            
Hard to play? Try these video lessons and learn fast. | Correct




comments powered by Disqus
↑ Back to top | Tablatures and chords are parodies/interpretations of the original songs. You may use it for private study, scholarship, research or language learning purposes only