» » »

Alexis Blue, Passive Agressive Tabs (ver.1)

Artists:  A B C D E F G H I J K L M N O P Q R S T U V W X Y Z # 

Passive Agressive Tabs (ver.1)

Alexis Blue Tabs
 Rating:
4.2/5 (5 votes)
Passive Agressive lessons Tabs too difficult? Try these video lessons and learn fast
1
                Passive/Aggressive - Alexis Blue

Intro : Dmin  F  C  Gmin

Bridge(Whenever it happens): Dmin  A#  A

Dmin                    F                        C
  Oh she squandered her chances with her bitter romances
              Gmin
She threw him away and then she turned to..
  Dmin
A guy who backstabbed her
    F
Who can or cannot
        C
Do what she wants
          Gmin
What does she want?

Dmin               F                     C
  She dont seem to understand, what he's like
         Gmin
He's not nice
   Dmin                            F
So if she wants to waste all that they've given,
               C             Gmin
In haste say go ahead. but think twice

Bassy Interlude bit(Im not sure, I have no bass):

E|------------------------|
A|-------------1---1-0-3--| x4
D|-0-3-0-0-3-0---0--------|
G|------------------------|

On the last one theres a little thing which i think is:

E|---------------------|
A|---------------------|
D|---------------------|
G|-------------7---7---|
B|---------8-6---6-----|
e|---------------------|

Dmin                     F
  If he stopped being so downright cocky
      C              Gmin
Maybe then he'd make true friends?
Dmin                          F
  He puts them down, and then he kicks them around
         C                    Gmin
And then assumes they'll just pretend

Dmin              F
  To not care, he knows they dont care
             C                            Gmin
They couldnt care less about him, was he unaware?
     Dmin                  F
They never liked him, they refuse to like him
       C                     Gmin
Theres damage done that cant be repaired


   F                C           Dmin              A#            F
It seems that im neurotic only time will tell but i say that im just
        C                  Dmin           A#            F
Passive/aggressive my mood varies time to time when im down
         C            Amin                  Dmin
I'm very down but you know that i'll bounce back
            A#                   C
I think its clear to see that I, I've gone off track


Dmin                  F                   C
 And so they gathered together, when and wherever
                       Gmin                   DMin
She thought they would last, but he had other plans
                                F
Lets backtrack there, he knew he had her
       C              Gmin
in the middle, of his hands

Dmin                     F
 Rumours flew about her, willing to do whatever
 C                  Gmin
It'd take to lie to cheat pretend to be together
 Dmin                          F
  With the guy thinks he's the cut above
C                                       Gmin
  She thinks that she loves him but she just loves love


   F                C           Dmin              A#            F
It seems that im neurotic only time will tell but i say that im just
        C                  Dmin           A#            F
Passive/aggressive my mood varies time to time when im down
         C            Amin                  Dmin
I'm very down but you know that i'll bounce back
            A#                   C
I think its clear to see that I, I've gone off track


   F                C           Dmin              A#            F
It seems that im neurotic only time will tell but i say that im just
        C                  Dmin           A#            F
Passive/aggressive my mood varies time to time when im down
         C            Amin                  Dmin
I'm very down but you know that i'll bounce back
            A#                   C
I think its clear to see that I, I've gone off track

-----------------------------------------------------------------------------------------------

Riff over the verses, Not sure if its the right key or what have you but the intention is there:

E|-------------------------------------------------|
A|--------------2-----2---------------0-3-0-0-3-0--|
D|0-3-0-0-3-0-3---3-3---3---2-----2----------------|
G|------------------------3---3-3---3--------------|
B|-------------------------------------------------|
e|-------------------------------------------------|


Riff Over Chorus:

E|------------------------------------------------------------------------------|
A|------------------------------------------------------------------------------|
D|------------------------------------------------------------------------------|
G|------------------------------------------------------------------------------|
B|------------------18-18-17-17-17-17-17-18-17-18----------------------------18-|
e|17-17-17-15-15-15-------------------------------17/18-18-18-17-17-17-15-15----|

E|--------------------  ---------------------------------------------------------|
A|--------------------  ---------------------------------------------------------|
D|--------------------x2---------------------------------------------------------|
G|--------------------  ---------------------------------------------------------|
B|18-18-18-18----18---  ------------------18-18-17-17-17-17-17-18-17-18-18-18-18-|
e|------------15----15  17-17-17-15-15-15----------------------------------------|

E|-------------------------------------------------------------------------------------------|
A|-------------------------------------------------------------------------------------------|
D|-------------------------------------------------------------------------------------------|
G|---------------17-17-17-17-17----17--------------------------------------------------------|
B|17-17-17-15-15----------------15----15-------------------18-18-17-17-17-17-17-18-17-18-18--|
e|---------------------------------------17-17-17-15-15-15-----------------------------------|


I think *fingers crossed* thats roughly it
            
Submit corrections

comments powered by Disqus
↑ Back to top | Alexis Blue Tabs for Passive Agressive. Lyrics for acoustic guitar and electric guitar. 1 Tablatures and chords are parodies/interpretations of the original songs. You may use it for private study, scholarship, research or language learning purposes only