» » »

Alexis Blue, Passive Aggressive Bass tabs (ver.1)

Artists:  A B C D E F G H I J K L M N O P Q R S T U V W X Y Z # 

Passive Aggressive Bass tabs (ver.1)

Alexis Blue Tabs
 Rating:
4/5 (4 votes)
Passive Aggressive lessons Tabs too difficult? Try these video lessons and learn fast
                -------------------------------------------------------------------------------
			     PASSIVE/AGGRESSIVE - Alexis Blue
-------------------------------------------------------------------------------

Tuning: standard (EADG)

Intro/verse:

G|------------------------------------------------------------------------|
D|----------3-3-3-3-------------------------------------------------------|
A|--5-5-5-5---------3-3-3-3-----------------------------------------------|
E|--------------------------3-3-3-3---------------------------------------|
Repeat this throughout the whole of the intro and verse. Guitar comes in at the
end of the second time through this, vocals at the end of the 4th time through.

Altogether it's played x4 for the intro and x4 again for the verse.

Interlude thing:

G|------------------------------------------------------------------------|
D|--0-3-0-0-3-0---0-------------------------------------------------------|
A|--------------1---1-0-3-------------------------------------------------|
E|------------------------------------------------------------------------|

Play that x4 (I've taken that directly from the guitar tab on here 'cause it
sounds perfect to me, so credit to whoever wrote that)

The second verse is exactly the same as the first, so play that main riff again:
G|------------------------------------------------------------------------|
D|----------3-3-3-3-------------------------------------------------------|
A|--5-5-5-5---------3-3-3-3-----------------------------------------------|
E|--------------------------3-3-3-3---------------------------------------|x4 .

Chorus: (quite simple, just the root notes - listen for the rhythm as I've
not written this down exactly, just put enough for it to be obvious what to do
G|------------------------------------------------------------------------|
D|--33-3333-------------------------33-3333-------------------------------|
A|----------33-3333-55-5555-11-1111---------33-3333-55-5555-11-1111-------|
E|------------------------------------------------------------------------|

G|------------------------------------------------------------------------|
D|--33-3333---------------------------------------------------------------|
A|----------33-3333-00-0000-55-5555-11-1111-33-3333-----------------------|
E|------------------------------------------------------------------------|

Repeat the interlude part another x4

Next verse again is the same:
G|------------------------------------------------------------------------|
D|----------3-3-3-3-------------------------------------------------------|
A|--5-5-5-5---------3-3-3-3-----------------------------------------------|
E|--------------------------3-3-3-3---------------------------------------|x4

Followed by the main riff again during the solo:
G|------------------------------------------------------------------------|
D|----------3-3-3-3-------------------------------------------------------|
A|--5-5-5-5---------3-3-3-3-----------------------------------------------|
E|--------------------------3-3-3-3---------------------------------------|x4

now repeat the chorus:
G|------------------------------------------------------------------------|
D|--33-3333-------------------------33-3333-------------------------------|
A|----------33-3333-55-5555-11-1111---------33-3333-55-5555-11-1111-------|
E|------------------------------------------------------------------------|

G|------------------------------------------------------------------------|
D|--33-3333---------------------------------------------------------------|
A|----------33-3333-00-0000-55-5555-11-1111-33-3333-----------------------|
E|------------------------------------------------------------------------|

Play the interlude part:
G|------------------------------------------------------------------------|
D|--0-3-0-0-3-0---0-------------------------------------------------------|
A|--------------1---1-0-3-------------------------------------------------|
E|------------------------------------------------------------------------|x3 (yes, only 
this time)

followed by this short section going back to the last chorus:
G|------------------------------------------------------------------------|
D|------------------------------------------------------------------------|
A|----------33-3333-------------------------------------------------------|
E|--33-3333---------------------------------------------------------------|

and the chorus again:
G|------------------------------------------------------------------------|
D|--33-3333-------------------------33-3333-------------------------------|
A|----------33-3333-55-5555-11-1111---------33-3333-55-5555-11-1111-------|
E|------------------------------------------------------------------------|

G|------------------------------------------------------------------------|
D|--33-3333---------------------------------------------------------------|
A|----------33-3333-00-0000-55-5555-11-1111-33-3333-----------------------|
E|------------------------------------------------------------------------|

before finally repeating the interlude part:
G|------------------------------------------------------------------------|
D|--0-3-0-0-3-0---0-------------------------------------------------------|
A|--------------1---1-0-3-------------------------------------------------|
E|------------------------------------------------------------------------|x4

and at the very end play the D string open

| /  slide up
| \  slide down
| h  hammer-on
| p  pull-off
| ~  vibrato
| +  harmonic
| x  Mute note
===============================================================================
            
Submit corrections

comments powered by Disqus
↑ Back to top | Alexis Blue Bass for Passive Aggressive. Lyrics for acoustic guitar and electric guitar. Tablatures and chords are parodies/interpretations of the original songs. You may use it for private study, scholarship, research or language learning purposes only