» » »

Alesana, Apology Tabs (ver.1)

Artists:  A B C D E F G H I J K L M N O P Q R S T U V W X Y Z # 

Apology Tabs (ver.1)

Alesana Tabs
 Rating:
4/5 (4 votes)
Apology lessons Tabs too difficult? Try these video lessons and learn fast
                Alesana-Apology
UPDATE:Hey ppl,i just wanted you guys to know it would be awesome if you guys can rate 
over 600 people have used this tab and no rating
so ya please rate becasue if this has a high rating more people will use it.
UPDATE:Hey Guys,I Completely Redid This tab because there were some mistakes and i also
the guitars to make it easier to learn.
check out my other tab,this is usually the part where people scream.
and PLEASE RATE because if this has a good rating,the more likely people will be using
apology will be up there soon:)
 

This is my first tab So it might not be great but better than the other Apology  tabs in
guitar so ya:
 Intro
Guitar 1(Clean)
|---------------|
|---------------|
|---------------|
|--5~--7~--9~~--|X4
|--5~--7~--9~~--|
|--5~--7~--9~~--|

YOUR EVERYTHING TO ME!
  Verse(Distortion)
|-----------------------------------------------------------|
|-----------------------------------------------------------|
|-----------------------------------------------------------|
|--5555555-7777777-9999999-9999999--------------------------|X3
|--5555555-7777777-9999999-9999999--------------------------|
|--5555555-7777777-9999999-9999999--------------------------|

|-----------------|
|-----------------|
|-----------------|
|-5555555--7777777|
|-5555555--7777777|
|-5555555--7777777|

|--------------------------|
|--------------------------|
|--------------------------|
|999999999999-555555-777777|X2
|999999999999-555555-777777|
|999999999999-555555-777777|
 Chorus(for the people who cant count below ,its 12 times for each chord)
|---------------------------------------------------|
|---------------------------------------------------|
|---------------------------------------------------|
|999999999999-777777777777-444444444444-555555555555|
|999999999999-777777777777-444444444444-555555555555|
|999999999999-777777777777-444444444444-555555555555|

 Verse
|-----------------------------------------------------------|
|-----------------------------------------------------------|
|-----------------------------------------------------------|
|--5555555-7777777-9999999-9999999--------------------------|X3
|--5555555-7777777-9999999-9999999--------------------------|
|--5555555-7777777-9999999-9999999--------------------------|

|-----------------|
|-----------------|
|-----------------|
|-5555555--7777777|
|-5555555--7777777|
|-5555555--7777777|
Pre verse
|-------0|
|-------0|
|7~-6~--0|
|9~-9~---|
|9~-9~---|
|--------|

Chorus
|---------------------------------------------------|
|---------------------------------------------------|
|---------------------------------------------------|
|999999999999-777777777777-444444444444-555555555555|X2
|999999999999-777777777777-444444444444-555555555555|
|999999999999-777777777777-444444444444-555555555555|

 Intro
|---------------|
|---------------|
|---------------|
|--5~--7~--9~~--|
|--5~--7~--9~~--|
|--5~--7~--9~~--|

|----------0-----|
|----------0-----|
|----------0-----|
|--5~--7~--------|
|--5~--7~--------|
|--5~--7~--------|
 Verse(this verse is a bit different because it starts on the 9th fret)
|-------------------------------|
|-------------------------------|
|-------------------------------|
|9999999-9999999-5555555-7777777|
|9999999-9999999-5555555-7777777|
|9999999-9999999-5555555-7777777|


|-----------------------------|
|-----------------------------|
|-----------------------------|
|999999999999-555555-777777777|
|999999999999-555555-777777777|
|999999999999-555555-777777777|
Bridge
|-----------------------|
|-----------------------|
|-----------------------|
|99-9-9-99-9-9-99-9-99-9|
|99-9-9-99-9-9-99-9-99-9|
|99-9-9-99-9-9-99-9-99-9|

|--------------------------------------------------------------------------|
|--------------------------------------------------------------------------|
|--------------------------------------------------------------------------|
|55-5-5-55-5-5-55-5-55-5-77-7-7-77-7-7-77-7-7-77-744-4-4-44-4-4-44-4-4-44-4|
|55-5-5-55-5-5-55-5-55-5-77-7-7-77-7-7-77-7-7-77-744-4-4-44-4-4-44-4-4-44-4|
|55-5-5-55-5-5-55-5-55-5-77-7-7-77-7-7-77-7-7-77-744-4-4-44-4-4-44-4-4-44-4|

|--------------------------------------------------------------------------|
|--------------------------------------------------------------------------|
|--------------------------------------------------------------------------|
|99-9-9-99-9-9-99-9-99-9--55-5-5-55-5-5-55-5-55-5-77-7-7-77-7-7-77-7-7-77-7|
|99-9-9-99-9-9-99-9-99-9--55-5-5-55-5-5-55-5-55-5-77-7-7-77-7-7-77-7-7-77-7|
|99-9-9-99-9-9-99-9-99-9--55-5-5-55-5-5-55-5-55-5-77-7-7-77-7-7-77-7-7-77-7|
* = Palm mute
|----------------|
|----------------|
|----------------|
|444444444444--4~|
|444444444444--4~|
|444444444444--4~|
 ************
Final chorus
|---------------------------------------------------|
|---------------------------------------------------|
|---------------------------------------------------|
|999999999999-777777777777-444444444444-555555555555|X2
|999999999999-777777777777-444444444444-555555555555|
|999999999999-777777777777-444444444444-555555555555|
 In My Mind , Sweat Drips From Your Eyes.....
|-----------------------------------------------|
|-----------------------------------------------|
|-----------------------------------------------|
|9-9-9--9-9-9--5-5-5--5-5-5--7-7-7--7-7-7--4-4-4|
|9-9-9--9-9-9--5-5-5--5-5-5--7-7-7--7-7-7--4-4-4|
|9-9-9--9-9-9--5-5-5--5-5-5--7-7-7--7-7-7--4-4-4|

|---------------|
|---------------|
|---------------|
|444444444444-4~|
|444444444444-4~|
|444444444444-4~|
 ************
End Of Guitar 1(Rythm)******************************************************

Beginning Of Guitar 2(Lead)
 Intro(clean)
|--------5--|
|7---5------|
|--4---4---4|X36
|-----------|
|-----------|
|-----------|
 Verse(distortion)
|-----------|  |5----|
|-----------|  |5-8-7|
|4-0-6-0-7-0|X7|-----|
|-----------|  |-----|
|-----------|  |-----|
|-----------|  |-----|

|-----------|  |-----|
|-----------|  |7----|
|4-0-6-0-7-0|X7|--6-7|
|-----------|  |-----|
|-----------|  |-----|
|-----------|  |-----|

|-----------|  |5----|
|-----------|  |5-8-7|
|4-0-6-0-7-0|X7|-----|
|-----------|  |-----|
|-----------|  |-----|
|-----------|  |-----|

|-----------|   |--------|
|-----------|   |--------|
|4-0-6-0-7-0|   |-4-6-7-9|
|-----------|X14|--------|
|-----------|   |--------|
|-----------|   |--------|


 Chorus
|----5-3-2--------5-3-2--------5-0-2h3----5-0-2h3----5-0-2h3---5-0-2h3|
|0-3-------3--0-3-------3--0-3---------0-3--------0-3-------0-3-------|
|---------------------------------------------------------------------|
|---------------------------------------------------------------------|X2
|---------------------------------------------------------------------|
|---------------------------------------------------------------------|

Pre-Verse
|----5-3-2------5-5p3-2--|
|0-3------3--0-3--------3|
|------------------------|
|------------------------|
|------------------------|
|------------------------|
 Verse
|-----------|  |5----|
|-----------|  |5-8-7|
|4-0-6-0-7-0|X7|-----|
|-----------|  |-----|
|-----------|  |-----|
|-----------|  |-----|

|-----------|  |-----|
|-----------|  |7----|
|4-0-6-0-7-0|X7|--6-7|
|-----------|  |-----|
|-----------|  |-----|
|-----------|  |-----|

|-----------|  |5----|
|-----------|  |5-8-7|
|4-0-6-0-7-0|X7|-----|
|-----------|  |-----|
|-----------|  |-----|
|-----------|  |-----|

Pre-Chorus
|------0-|
|------0-|
|7~-6~-0-|
|9~-9~---|
|9~-9~---|
|--------|

Chorus
|----5-3-2--------5-3-2--------5-0-2h3----5-0-2h3----5-0-2h3---5-0-2h3|
|0-3-------3--0-3-------3--0-3---------0-3--------0-3-------0-3-------|
|---------------------------------------------------------------------|
|---------------------------------------------------------------------|X2
|---------------------------------------------------------------------|
|---------------------------------------------------------------------|

|----5-3-2--------5-3-2--------5-0-2h3----5-0-2h3----5-0-2h3---5-0-2h3|
|0-3-------3--0-3-------3--0-3---------0-3--------0-3-------0-3-------|
|---------------------------------------------------------------------|
|---------------------------------------------------------------------|X2
|---------------------------------------------------------------------|
|---------------------------------------------------------------------|

 Intro
|--------5--|
|7---5------|
|--4---4---4|
|-----------|X12
|-----------|
|-----------|
 Verse(its a little bit different,only because you play less)
|-----------|  |-----|
|-----------|  |7----|
|4-0-6-0-7-0|X3|--6-7|
|-----------|  |-----|
|-----------|  |-----|
|-----------|  |-----|

|-----------|
|-----------|
|4-0-6-0-7-0|X10
|-----------|
|-----------|
|-----------|

|--------|
|--------|
|-4-6-7-9|
|--------|
|--------|
|--------|
Bridge(Tremelo Pick Each note) Tremelo Picking : Picking A note fast repeatly
|---------------------------------|
|---------------------------------|
|---------------------------------|(each note here is usually plucked about
|11-12-14-12--9--11-12-11-8-8-9-11| 6 times each)
|---------------------------------|
|---------------------------------|

|-----------------------------------------------|
|-----------------------------------------------|
|11-12-14-12--9-11-12-14--11-12-14-12--8-8-9-/11|
|-----------------------------------------------|
|-----------------------------------------------|
|-----------------------------------------------|

 Final Chorus
|----5-3-2--------5-3-2--------5-0-2h3----5-0-2h3----5-0-2h3---5-0-2h3|
|0-3-------3--0-3-------3--0-3---------0-3--------0-3-------0-3-------|
|---------------------------------------------------------------------|
|---------------------------------------------------------------------|X2
|---------------------------------------------------------------------|
|---------------------------------------------------------------------|

|----5-3-2--------5-3-2--------5-0-2h3----5-0-2h3----5-0-2h3---5-0-2h3|
|0-3-------3--0-3-------3--0-3---------0-3--------0-3-------0-3-------|
|---------------------------------------------------------------------|
|---------------------------------------------------------------------|X2
|---------------------------------------------------------------------|
|---------------------------------------------------------------------|
 In My Mind , Sweat Drips From Your Eyes....
|---5-3-2--------5-----------5-3-2------5-3-2------5-5----|
|0-3------3--0-3---7-----0-3------3--0-3-----3--0-3--5-8-7|
|--------------------6-7----------------------------------|
|---------------------------------------------------------|X2
|---------------------------------------------------------|
|---------------------------------------------------------|
 (Let chord ring untill the song ends)
|---|
|---|
|---|
|---| Last GoodBye!......
|9~~|
|9~~|
|9~~|
End Of Guitar 2

Thanks for using my tab,I will make more alesana tabs and other bands if you rate my tabs^^.
            
Submit corrections

comments powered by Disqus
↑ Back to top | Alesana Tabs for Apology. Lyrics for acoustic guitar and electric guitar. Tablatures and chords are parodies/interpretations of the original songs. You may use it for private study, scholarship, research or language learning purposes only