» » »

Alan Jackson, Remember When Tabs (ver.2)

Artists:  A B C D E F G H I J K L M N O P Q R S T U V W X Y Z # 

Remember When Tabs (ver.2)

Alan Jackson Tabs
 Rating:
4/5 (4 votes)
Remember When lessons Tabs too difficult? Try these video lessons and learn fast
                
Standard Tuning

I tabbed this out so you can read the chords as the song goes,
instead of having to remember each one.  There isn't a whole
lot of strumming in the song, so feel free to experiment with
different stum patterns, if any.  I sometimes found it nicer
to just play each chord once.  Enjoy.

Intro
e|------11/12-----15-14-15----------0----12---14-----------------------------|
B|---------------------------12----------------------------------------------|
G|-------------------------------12------------------------------------------|
D|---------------------------------------------------------------------------|
A|---------------------------------------------------------------------------|
E|---------------------------------------------------------------------------|

e|-----14/15---15-15-14-12--------15-14-15-----------------------------------|
B|-------------------------15-15---------------------------------------------|
G|---------------------------------------------------------------------------|
D|---------------------------------------------------------------------------|
A|---------------------------------------------------------------------------|
E|---------------------------------------------------------------------------|

e|--------------------15-15-14h15-15-14-12-----------------------------------|
B|-----12----------------------------------15-12-13---12h13p12---------------|
G|--------12------------------------------------------------------12---------|
D|-----------12-14-----------------------------------------------------------|
A|---------------------------------------------------------------------------|
E|---------------------------------------------------------------------------|

Verse 1
e|-----------3-------------------------2----------3--------------------------------2--|
B|--------------3--------3-------------3--------------------3------3---------------3--|
G|-------------------------------------2-------------------------------------------2--|
D|--------------0--------2-------------0--------------------0------2---------------0--|
A|-----------2--2--------3------------------------2---------2------3------------------|
E|-----------3------------------------------------3-----------------------------------|
  Remember when, I was young, so were you, Time stood still, and love was all we knew,

e|---------------3------------------------------------------2---------------3-----3-2-|
B|---------------------------3------------3-----------------3-----------------3-1-3-3-|
G|----------------------------------------------------------2---------------------2-2-|
D|---------------------------0------------2-----------------0-----------------0-2---0-|
A|---------------2-----------2------------3---------------------------------2-2-3-----|
E|---------------3----------------------------------------------------------3---------|
  You were the first, so was I, We made love and then you cried, Remember when.


Verse 2
e|-----------3------------------------------------2--|
B|--------------3-----------3---------------------3--|
G|------------------------------------------------2--|
D|--------------0-----------2---------------------0--|
A|-----------2--2-----------3------------------------|
E|-----------3---------------------------------------|
  Remember when, vowed the vows, and walked the walk,

e|------------3--------------------------------2--|
B|----------------3-----------3----------------3--|
G|---------------------------------------------2--|
D|----------------0-----------2----------------0--|
A|------------2---2-----------3-------------------|
E|------------3-----------------------------------|
  Gave our hearts, made the start and it was hard,




e|----------------3------------------------------------------------------2--|
B|------------------------------------3---------------3------------------3--|
G|-----------------------------------------------------------------------2--|
D|------------------------------------0---------------2------------------0--|
A|----------------2-------------------2---------------3---------------------|
E|----------------3---------------------------------------------------------|
  We lived and learned, life threw curves, There was joy and there was hurt,

e|-----------3-----------3---2-|
B|---------------3---1---3---3-|
G|-----------------------2---2-|
D|---------------0---2-------0-|
A|-----------2---2---3---------|
E|-----------3-----------------|
  Remember when.


Verse 3
e|-----------3-------------------------------2--|
B|--------------3----------3-----------------3--|
G|-------------------------------------------2--|
D|--------------0----------2-----------------0--|
A|-----------2--2----------3--------------------|
E|-----------3----------------------------------|
  Remember when, old ones die and new were born,

e|------------3--------------------------2--|
B|-----------------3---------3-----------3--|
G|---------------------------------------2--|
D|-----------------0---------2-----------0--|
A|------------2----2---------3--------------|
E|------------3-----------------------------|
  Life was changed, disassemble, rearranged,

e|--------------3----------------------------------------2---------------3---3-----|
B|-------------------------3---------3-------------------3-----------------3---3---|
G|-------------------------------------------------------2-----------------------4-|
D|-------------------------0---------2-------------------0-----------------2---0-4-|
A|--------------2----------2---------3-----------------------------------2-3-2-2-2-|
E|--------------3--------------------------------------------------------3---3-----|
  We came together, fell apart, We broke each other’s hearts, Remember when.

Solo Chords
e|-----0-------3-------0-------3-----------------3-------------|
B|-1---1-----------1---1-----------1-----------------1---------|
G|-------------------------------------------------------2---1-|
D|-2---2---3-------2---2---3-------2---2-----3-------2---2---2-|
A|-3-------3---2---3-------3---2---3-2-------3---2---3---2---2-|
E|---------1---3-----------1---3---------3---1---3-------------|


Verse 4
e|---------------------2----------------------------------------2---------------------|
B|-----------2---------3-----------------------------2----------3---------------------|
G|-----------2---------2--------------1--------------2----------2------------------1--|
D|-----------2--4------0--------------2--------------2---4------0------------------2--|
A|--------------4---------------------2------------------4-------------------------2--|
E|--------------2----------------------------------------2----------------------------|
  Remember when, the sound of little feet, Was our music, we danced from week to week,




e|----------------------------------------------------2------------------------------2--|
B|-------------------2--------------------------------3--------------------------2---3--|
G|-------------------2--------------------------------2------------1-------------2---2-1|
D|-------------------2--------------4-----------------0------------2-------------2-4-0-2|
A|----------------------------------4------------------------------2---------------4---2|
E|----------------------------------2----------------------------------------------2----|
  Brought back the love, we found trust, Vowed we’d never give it up, Remember when.


Verse 5
e|------------------2-------------------------------------------2-------------------|
B|-----------2------3-------------------------------2-----------3-------------------|
G|-----------2------2--------------1----------------2-----------2---------------1---|
D|-----------2--4---0--------------2----------------2---4-------0---------------2---|
A|--------------4------------------2--------------------4-----------------------2---|
E|--------------2---------------------------------------2---------------------------|
  Remember when, thirty seemed so old, Now looking back, it’s just a stepping stone,

e|----------------------------------------------2------------------------------2------|
B|-------------2--------------------------------3--------------------------2---3------|
G|-------------2--------------------------------2----------1---------------2---2-1----|
D|-------------2-----------------4--------------0----------2---------------2-4-0-2----|
A|-------------------------------4-------------------------2-----------------4---2----|
E|-------------------------------2-------------------------------------------2--------|
  To where we are, where we’ve been, Said we’d do it all again, Remember when.


Verse 6
e|--------------------2------------------------------------------------2---------------|
B|-----------2--------3------------------------------------2-----------3---------------|
G|-----------2--------2-------------------1----------------2-----------2------------1--|
D|-----------2--4-----0-------------------2----------------2----4------0------------2--|
A|--------------4-------------------------2---------------------4-------------------2--|
E|--------------2-----------------------------------------------2----------------------|
  Remember when, we said when we’d turn grey, When the children, grow up and move away,

e|--------------------------------------2--------------------|
B|-------------2------------------------3--------------------|
G|-------------2------------------------2-----------------1--|
D|-------------2--------------4---------0-----------------2--|
A|----------------------------4---------------------------2--|
E|----------------------------2------------------------------|
  We won’t be sad, we’ll be glad, For all the life we’ve had,

e|-----------------------------2------------------------2-------------------|
B|---------------------2-------3----------------2-------3----------------2--|
G|---------------------2-------2---1------------2-------2---1------------2--|
D|---------------------2---4---0---2------------2---4---0---2------------2--|
A|-------------------------4-------2----------------4-------2---------------|
E|-------------------------2------------------------2-----------------------|
  And we’ll remember when,           Remember when,           Remember when.

END
            
Submit corrections

comments powered by Disqus
↑ Back to top | Alan Jackson Tabs for Remember When. Lyrics for acoustic guitar and electric guitar. Tablatures and chords are parodies/interpretations of the original songs. You may use it for private study, scholarship, research or language learning purposes only