» » »

It Must Be Love Tabs

Artists:  A B C D E F G H I J K L M N O P Q R S T U V W X Y Z # 

It Must Be Love Tabs

(ver. 1)
Alan Jackson Tabs
 Rating:
4/5 (4 votes)
    It Must Be Love lessons Tabs too difficult? Try these video lessons and learn fast
                IT MUST BE LOVE

Intro (do not use capo)


E-2-2----------------------2-2-------------------------2-2-----------------------
B-4p2----------------------4p2-------------------------2p4-----------------------
G----1/3-3/1---------1----------1/3-3/1----1/3--3--1--------1/3--3/1---------1---
D------------4-----4---4----------------4----------------------------4-----4---4- 
A--------------1h2-----------------------------------------------------1h2-------
E--------------------------------------------------------------------------------

E----16-14-11-9--------------
B----16-14-11-9---9/11--9----
G-------------------------11-
D----------------------------
A----------------------------
E----------------------------
            
Submit corrections

↑ Back to top | Alan Jackson Tabs for It Must Be Love. Lyrics for acoustic guitar and electric guitar. Tablatures and chords are parodies/interpretations of the original songs. You may use it for private study, scholarship, research or language learning purposes only