» » »

I'll Go On Loving You Tabs (ver.1)

Artists:  A B C D E F G H I J K L M N O P Q R S T U V W X Y Z # 

I'll Go On Loving You Tabs (ver.1)

Alan Jackson
Rating:
0/5 (0 votes)

Hard to play? Try these video lessons and learn fast.
                Chords used:  Am-  x02210  Fsus- xx3210 G- 320033


Capo 3rd
Intro:  Am Fsus Am Fsus

Am                    Fsus
When I look into your soft green eyes

Am                  Fsus
And when I see your delicate body

Am                   Fsus              G
Revealed to me as you slip off your dress

Am                      Fsus          
I'm reminded that what I feel for you

Am               Fsus
Will remain strong and true

Am                   Fsus            G
Long after the pleasures of the flesh and

Chorus:
Am         Fsus
I'll go on loving you

Am          Fsus
I'll go on loving you

Am           G
I'll go on loving you

And be it the wind or the rain
Or the moon up in the sky
The spin of the earth 
Or the changes in the tide
I don't know what brought us together
What strange forces of nature
Conspired to construct
The present from the past but

Chorus

When I look into your soft green eyes
And when I see your delicate body
Revealed to me as you slip off your dress
I'm reminded that what I feel for you
Will remain strong and true
Long after the pleasures of the flesh and

Chorus


This is how I like to play the chorus:
(Relative to capo being open) D= Downstroke    U=Upstroke

  D    D    U    D    U    D    U   D 
--0----0----0----0----0----0----0------------
--1----1----1----1----1----1----1------------
--2----2----0----2----0----2----0------------ 
--2----2----0----2----0----3----3---3-------- 
--0----0----0----0----0---------------------- 
--------------------------------------------- 


  D    D    U    D    U    D    U   D 
--0----0----0----0----0----0----0---------3--
--1----1----1----1----1----1----1---------3--
--2----2----0----2----0----2----0---------0-- 
--2----2----0----2----0----3----3---3-----0-- 
--0----0----0----0----0-------------------2-- 
------------------------------------------3--
            
Hard to play? Try these video lessons and learn fast. | Correct




comments powered by Disqus
↑ Back to top | Tablatures and chords are parodies/interpretations of the original songs. You may use it for private study, scholarship, research or language learning purposes only