» » »

Alan Jackson, Don't Rock The Jukebox Tabs (ver.1)

Artists:  A B C D E F G H I J K L M N O P Q R S T U V W X Y Z # 

Don't Rock The Jukebox Tabs (ver.1)

Alan Jackson Tabs
Rating:
0/5 (0 votes)
Don't Rock The Jukebox lessons Tabs too difficult? Try these video lessons and learn fast
                Alan Jackson:Don't ROck The Jukebox(Lead)


Standard Brent Mason, Cool and hard to play
X  Dead Note struck with pick and fingers

Enjoy!~Cal




I ain't been so lonely

E-------------6--------------------------------------------
B----------------------8-----------------------------------
G-X-X-X-7b(9)---7bh(9)---(9)r7-5---------------------------
D----------------------------------------------------------
A----------------------------------------------------------
E----------------------------------------------------------

Ever since she left

E-6------6-------------------------------------------------
B-6b(8)--6--6p3--------------3----------------------3p1p0--
G---------------5-----5\3--5---3b(4)--------------0--------
D-----------------3h5----------------5---3b(4)-------------
A----------------------------------------------5-----------
E----------------------------------------------------------

E----------------------------------------------------------
B----------------------------------------------------------
G-3p2p0----------------------------------------------------
D-------3p2p0-----0----------------------------------------
A-------------1h2------------------------------------------
E-------------------3--------------------------------------


Guitar Solo

E----------------12------------6---------------------------
B-X-X-X-10bh(12)----(12)r10-8----8--------8--------------6-
G----------------------------------7bh(9)---(9)r7-5bh(7)---
D----------------------------------------------------------
A----------------------------------------------------------
E----------------------------------------------------------

E-3---------------------------------12-7----------------3--
B---6---------------------8-10b(12)------(8)r6-------------
G-----(7)r5-3b(4)-----7-9------------------------5bh(7)----
D-----------------5----------------------------------------
A----------------------------------------------------------
E----------------------------------------------------------


E----------------------------------------------------------
B----------------------------------------------------------
G-(7)r5p3---3b(4)------------------------------------------
D---------5-------5-3-2-0-----0----------------------------
A-------------------------1h2------------------------------
E-------------------------------3--------------------------



End lick

E-X-X-X-5b(7)r5--------------------------------------------
B---------------6------------------------------------------
G----------------------------------------------------------
D----------------------------------------------------------
A----------------------------------------------------------
E----------------------------------------------------------


            
Submit corrections

comments powered by Disqus
↑ Back to top | Alan Jackson Tabs for Don't Rock The Jukebox. Lyrics for acoustic guitar and electric guitar. Tablatures and chords are parodies/interpretations of the original songs. You may use it for private study, scholarship, research or language learning purposes only