» » »

Alan Jackson, Chattahoochie Tabs (ver.2)

Artists:  A B C D E F G H I J K L M N O P Q R S T U V W X Y Z # 

Chattahoochie Tabs (ver.2)

Alan Jackson Tabs
 Rating:
4/5 (4 votes)
Chattahoochie lessons Tabs too difficult? Try these video lessons and learn fast
1
                (Intro)
So I've be trying to get this tab right since.. forever and iv'e come up with 2 versions 
the intro, They sound alright to me. Standard Tuning. It's pretty easy once you get the tuning.


Version 1:

e]----------------------------------------------------------------|
B]----------------------------------------------------------------|
G]----------------------------------------------------------------|
D]----------------------------------------------------------------|
A]--2h3-3-2h3-3-2h3-------2h3-3-2h3-3-2h3-3-----------------------|
E]----------------------------------------------------------------|

e]----------------------------------------------------------------|
B]----------------------------------------------------------------|
G]----------------------------------------------------------------|
D]----------------------------------------------------------------|
A]--2h3-3-2h3-3-2h3------------1p0----0---------------------------|
E]----------------------------------3---3-------------------------|

e]----------------------------------------------------------------|
B]----------------------------------------------------------------|
G]----------------------------------------------------------------|
D]----------------------------------5--7--------------------------|
A]--2h3-3-2h3-3-2h3-------------5s7-------------------------------|
E]----------------------------------------------------------------|

e]----------------------------------------------------------------|
B]----------------------------------------------------------------|
G]----------------------------------------------------------------|
D]----------------------------------------------------------------|
A]--2h3-3-2h3-3-2h3---------5--3----------------------------------|
E]---------------------5--3---------------------------------------|

e]----------------------------------------------------------------|
B]----------------------------------------------------------------|
G]---------------------------------5------------------------------|
D]-------------------------5--7--5----7--5-----------7-5----------|
A]--2h3-3-2h3-3-2h3----5s7------------------7--5--3-------7-5-----|
E]----------------------------------------------------------------|

Version 2:

e]----------------------------------------------------------------|
B]----------------------------------------------------------------|
G]----------------------------------------------------------------|
D]----------------------------------------------------------------|
A]--2h3-3-2h3-3-2h3-------2h3-3-2h3-3-2h3-3-----------------------|
E]----------------------------------------------------------------|

e]----------------------------------------------------------------|
B]----------------------------------------------------------------|
G]-----------------------------0-2-0------------------------------|
D]--------------------0h2-----------------------------------------|
A]--2h3-3-2h3-3-2h3-----------------------------------------------|
E]----------------------------------------------------------------|


[No change here from first version.]

e]----------------------------------------------------------------|
B]----------------------------------------------------------------|
G]----------------------------------------------------------------|
D]----------------------------------------------------------------|
A]--2h3-3-2h3-3-2h3---------5--3----------------------------------|
E]---------------------5--3---------------------------------------|

e]----------------------------------------------------------------|
B]--------------------------------2-0-----------------------------|
G]-------------------------0-2-0------2-0-----2-0-----------------|
D]---------------------0h2----------------2-0-----2-0-------------|
A]--2h3-3-2h3-3-2h3-----------------------------------3-----------|
E]----------------------------------------------------------------|
            
Submit corrections

comments powered by Disqus
↑ Back to top | Alan Jackson Tabs for Chattahoochie. Lyrics for acoustic guitar and electric guitar. 1 Tablatures and chords are parodies/interpretations of the original songs. You may use it for private study, scholarship, research or language learning purposes only