» » »

Alanis Morissette, Hand In My Pocket Tabs (ver.1)

Artists:  A B C D E F G H I J K L M N O P Q R S T U V W X Y Z # 

Hand In My Pocket Tabs (ver.1)

Alanis Morissette Tabs
 Rating:
3.4/5 (10 votes)
Hand In My Pocket lessons Tabs too difficult? Try these video lessons and learn fast
                

standard tuning

----------|-------3---3---3----3--|
----------|----3--------3---3-----|
----------|-----------------------|
----------|-----------------------|
----------|-----------------------|
----------|-3---------------------|
    Intro/Verse



----------|-----3---3---3----3--------3-------------3---3---3----3------3--3--|
----------|---3-------3---3------3---------3------3-------3---3-------3-------|
----------|-------------------------------------------------------------------|
----------|-------------------------------------------------------------------|
----------|-3--------------------3--------------------------------------------|
----------|-------------------------------------3--------------------3--------|
    Chorus

---3-----3--------3---3---3----3-------3----------3----|-----------------|----|
-3---3----------3-------3---3--------3---------3-------|-----------------|----|
-------------------------------------------------------|-----------------|----|
-------------------------------------------------------|-----------------|----|
--------------3--------------------3--------0----------|-----------------|----|
-------------------------------------------------------|-----------------|----|
                                                         Rest is G chord
            
Submit corrections

comments powered by Disqus
↑ Back to top | Alanis Morissette Tabs for Hand In My Pocket. Lyrics for acoustic guitar and electric guitar. Tablatures and chords are parodies/interpretations of the original songs. You may use it for private study, scholarship, research or language learning purposes only