>
 >
(There's A) Fire In The Night

(There's A) Fire In The Night Bass Tabs

Alabama - (There's A) Fire In The Night chords, tabs, tablatures, lyrics

Guitar lessons | Add/correct | Request | Top 50 tabs Artists:  A B C D E F G H I J K L M N O P Q R S T U V W X Y Z 0-9

(There's A) Fire In The Night Bass Tabs – Alabama

CD, Sheet music, Poster

Do you like (There's A) Fire In The Night? Share with your friends now
Bass TabsTabs
-----------------------------------------------------------------------------
	     There's A Fire In The Night - Alabama (BASS)
                       
-----------------------------------------------------------------------------

Tuning: Standard

=============================================================================

Bass



     W                   W                   W                 
G||-------------------|-------------------|-------------------|
D||-------------------|-------------------|-------------------|
A||-------------------|-------------------|-------------------|
E||-------------------|-------------------|-------------------|


  W                   W                   H        H         
-------------------|-------------------|--------------------|
-------------------|-------------------|--------------------|
-------------------|-------------------|--------------------|
-------------------|--5----------------|--L-----------------|


  W                   Q    Q    Q    Q       Q.     E  H         
-------------------|----------------------|---------------------|
-------------------|----------------------|---------------------|
--9----------------|--L---------9----7----|---------------------|
-------------------|----------------------|--5------5--5--------|


  Q.     E  H           Q.     E  H           Q.     E  H         
---------------------|---------------------|---------------------|
---------------------|---------------------|---------------------|
---------------------|---------------------|---------------------|
--5------5--5--------|--5------5--5--------|--5------5--5--------|


  Q.     E  H           Q.     E  H           Q.     E  H         
---------------------|---------------------|---------------------|
---------------------|---------------------|---------------------|
---------------------|---------------------|---------------------|
--5------5--5--------|--5------5--5--------|--2------2--2--------|


  Q.     E  H           Q.     E  H           Q.     E  H         
---------------------|---------------------|---------------------|
---------------------|---------------------|---------------------|
---------------------|---------------------|---------------------|
--2------2--2--------|--5------5--5--------|--5------5--5--------|


  Q.     E  H           Q.     E  H           Q.     E  H         
---------------------|---------------------|---------------------|
---------------------|---------------------|---------------------|
---------------------|---------------------|--5------5--5--------|
--2------2--2--------|--2------2--2--------|---------------------|


  Q.     E  H           Q.     E  H           Q.     E  H         
---------------------|---------------------|---------------------|
---------------------|---------------------|---------------------|
--5------5--5--------|---------------------|---------------------|
---------------------|--5------5--5--------|--5------5--5--------|


  Q.     E  H           Q.     E  H           Q.     E  H         
---------------------|---------------------|---------------------|
---------------------|---------------------|---------------------|
--2------2--2--------|--5------5--5--------|--7------7-----------|
---------------------|---------------------|------------7--------|


  Q.     E  E  E  E  E     H        H           H        H         
------------------------|--------------------|--------------------|
------------------------|--------------------|--------------------|
--7------7--7--7--7--7--|--9-----------------|--9--------9--------|
------------------------|-----------9--------|--------------------|


  H        H           H        H           H        H         
--------------------|--------------------|--------------------|
--------------------|--------------------|--------------------|
--------------------|--------------------|--9-----------------|
--5--------0--------|--5--------5--------|-----------9--------|


  H        H           H        H           H        H         
--------------------|--------------------|--------------------|
--------------------|--------------------|--------------------|
--9--------9--------|--------------------|--------------------|
--------------------|--5--------0--------|--5--------5--------|


  Q.     E  H           Q.     E  H           Q.     E  H         
---------------------|---------------------|---------------------|
---------------------|---------------------|---------------------|
--5------5--5--------|--5------5--5--------|---------------------|
---------------------|---------------------|--5------5--5--------|


  Q.     E  H           Q.     E  H           H        H         
---------------------|---------------------|--------------------|
---------------------|---------------------|--------------------|
---------------------|--5------5--5--------|--------------------|
--5------5--5--------|---------------------|--2--------0--------|


  Q.     E  H           Q.     E  H           Q.     E  H         
---------------------|---------------------|---------------------|
---------------------|---------------------|---------------------|
---------------------|---------------------|---------------------|
--5------5--5--------|--5------5--5--------|--5------5--5--------|


  Q.     E  E  E  Q        Q.     E  H           Q.     E  H         
------------------------|---------------------|---------------------|
---------9--7-----------|---------------------|---------------------|
---------------9--7\----|---------------------|---------------------|
--5---------------------|--5------5--5--------|--5------5--5--------|


  Q.     E  H           Q.     E  H           Q.     E  H         
---------------------|---------------------|---------------------|
---------------------|---------------------|---------------------|
---------------------|---------------------|---------------------|
--2------2--2--------|--2------2--2--------|--5------5--5--------|


  Q.     E  H           Q.     E  H           Q.     E  H         
---------------------|---------------------|---------------------|
---------------------|---------------------|---------------------|
---------------------|---------------------|---------------------|
--5------5--5--------|--2------2--2--------|--2------2--2--------|


  Q.     E  H           Q.     E  H           Q.     E  H         
---------------------|---------------------|---------------------|
---------------------|---------------------|---------------------|
--5------5--5--------|--5------5--5--------|---------------------|
---------------------|---------------------|--5------5--5--------|


  Q.     E  H           Q.     E  H           Q.     E  H         
---------------------|---------------------|---------------------|
---------------------|---------------------|---------------------|
---------------------|--2------2--2--------|--5------5--5--------|
--5------5--5--------|---------------------|---------------------|


  Q.     E  H           Q.     E  Q    E  E     H        H         
---------------------|-----------------------|--------------------|
---------------------|-----------------------|--------------------|
--7------7-----------|--7------7--7----7--7--|--9-----------------|
------------7--------|-----------------------|-----------9--------|


  H        H           H        H           H        H         
--------------------|--------------------|--------------------|
--------------------|--------------------|--------------------|
--9--------9--------|--------------------|--------------------|
--------------------|--5--------0--------|--5--------5--------|


  H        H           H        H           H        H         
--------------------|--------------------|--------------------|
--------------------|--------------------|--------------------|
--9-----------------|--9--------9--------|--------------------|
-----------9--------|--------------------|--5--------0--------|


  H        H           Q.     E  H           Q.     E  H         
--------------------|---------------------|---------------------|
--------------------|---------------------|---------------------|
--------------------|--5------5--5--------|--5------5--5--------|
--5--------5--------|---------------------|---------------------|


  Q.     E  H           Q.     E  H           Q.     E  H         
---------------------|---------------------|---------------------|
---------------------|---------------------|---------------------|
---------------------|---------------------|--5------5--5--------|
--5------5--5--------|--5------5--5--------|---------------------|


  H        H           Q.     E  H           Q.     E  H         
--------------------|---------------------|---------------------|
--------------------|---------------------|---------------------|
--------------------|---------------------|---------------------|
--2--------0--------|--5------5--5--------|--5------5--5--------|


  Q.     E  Q.     E     Q.     E  Q.     E     Q.     E  Q.     E   
----------------------|----------------------|----------------------|
----------------------|----------------------|----------------------|
----------------------|----------------------|----------------------|
--2------2--2------2--|--2------2--0------0--|--5------5--5------5--|


  Q.     E  Q    Q       Q.     E  Q.     E     Q.     E  Q.     E   
----------------------|----------------------|----------------------|
----------------------|----------------------|----------------------|
----------------------|----------------------|----------------------|
--5------5--5----4----|--2------2--2------2--|--2------2--2------2--|


  Q.     E  Q.     E     Q    E  E  E  E  E  E     H        H         
----------------------|-------------------------|--------------------|
----------------------|-------------------------|--------------------|
----------------------|-------------------------|--9-----------------|
--5------5--0------0--|--5----5--7--5--4--5--4--|-----------9--------|


  H        H           H        H           H        H         
--------------------|--------------------|--------------------|
--------------------|--------------------|--------------------|
--9--------9--------|--------------------|--------------------|
--------------------|--5--------0--------|--5--------5--------|


  H        H           H        H           H        H         
--------------------|--------------------|--------------------|
--------------------|--------------------|--------------------|
--9-----------------|--9--------9--------|--------------------|
-----------9--------|--------------------|--5--------0--------|


  H        H           Q.     E  H           Q.     E  H         
--------------------|---------------------|---------------------|
--------------------|---------------------|---------------------|
--------------------|--5------5--5--------|--5------5--5--------|
--5--------5--------|---------------------|---------------------|


  Q.     E  H           Q.     E  H           Q.     E  H         
---------------------|---------------------|---------------------|
---------------------|---------------------|---------------------|
---------------------|---------------------|--5------5--5--------|
--5------5--5--------|--5------5--5--------|---------------------|


  H        H           Q.     E  H           Q.     E  H         
--------------------|---------------------|---------------------|
--------------------|---------------------|---------------------|
--------------------|---------------------|---------------------|
--2--------0--------|--5------5--5--------|--5------5--5--------|


  Q.     E  H           Q.     E  H           Q.     E  H         
---------------------|---------------------|---------------------|
---------------------|---------------------|---------------------|
--9------9--9--------|--9------9--9--------|---------------------|
---------------------|---------------------|--5------5--5--------|


  Q.     E  H           Q.     E  H           Q.     E  Q     Q     
---------------------|---------------------|-----------------------|
---------------------|---------------------|-----------------------|
---------------------|--9------9--9--------|--9------9--9----11----|
--5------5--5--------|---------------------|-----------------------|


  Q.     E  H           Q.     E  H           Q.     E  H         
---------------------|---------------------|---------------------|
---------------------|---------------------|---------------------|
--0------------------|---------------------|--9------9--9--------|
---------5--5--------|--5------5--5--------|---------------------|


  Q.     E  H           Q.     E  H           Q.     E  H         
---------------------|---------------------|---------------------|
---------------------|---------------------|---------------------|
--9------9--9--------|---------------------|---------------------|
---------------------|--5------5--5--------|--5------5--5--------|


  Q.     E  H           Q.     E  Q     Q       Q.     E  H         
---------------------|-----------------------|---------------------|
---------------------|-----------------------|---------------------|
--9------9--9--------|--9------9--9----11----|---------------------|
---------------------|-----------------------|--5------5--5--------|


  Q.     E  H           Q.     E  Q.     E     Q.     E  E  E  E  E   
---------------------|----------------------|------------------------|
---------------------|----------------------|------------------------|
---------------------|--9------9--9---------|--9------9--9--7--------|
--5------5--5--------|-------------------9--|------------------9--7--|


  Q.     E  H           Q.     E  H           Q.     E  H         
---------------------|---------------------|---------------------|
---------------------|---------------------|---------------------|
---------------------|---------------------|--9------9--9--------|
--5------5--5--------|--5------5--5--------|---------------------|


  Q.     E  H           Q.     E  H           Q.     E  H         
---------------------|---------------------|---------------------|
---------------------|---------------------|---------------------|
--9------9--9--------|---------------------|---------------------|
---------------------|--5------5--5--------|--5------5--5--------|


  Q.     E  H           Q.     E  H           Q.     E  H          
---------------------|---------------------|---------------------||
---------------------|---------------------|---------------------||
--9------9--9--------|--9------9--9--------|---------------------||
---------------------|---------------------|--5------5--5--------||




Duration Legend
---------------
W - whole
H - half
Q - quarter
E - 8th
S - 16th
T - 32nd
X - 64th
. - note dotted
|-n-|  - n-tuplets


Tablature Legend
----------------
L - tied note
x - dead note
g - grace note
(n) - ghost note
> - accentuded note
NH - natural harmonic
AH - artificial harmonic
TH - tapped harmonic
SH - semi harmonic
PH - pitch harmonic
h - hammer on
p - pull off
b - bend
br - bendRelease
pb - preBend
pbr - preBendRelease
brb - bendReleaseBend
\n/ - tremolo bar dip
\n - tremolo bar dive
-/n - tremolo bar Release up
/n\ - tremolo bar inverted dip
/n - tremolo bar return
-\n - tremolo bar Release down
S - shift slide
s - legato slide
/ -  slide into from below or out of upwards
\ -  slide into from above or out of downwards
~ - vibrato
W - wide vibrato
tr - trill
TP - tremolo picking
T - tapping
S - slap
P - pop
< - fade in
^ - brush up
v - brush down





Comments


Popular Alabama tabs & chords
Angels Among Us 1 Chords
Dancin' on the Boulevard Chords
End Of The Lyin Chords
Hat's Off Chords
Never Be One Chords
Old Man Chords
My Homes In Alabama Ukulele
She And I Ukulele
Southern Star Ukulele
Tennessee River Ukulele


Song lyrics



↑ Back to top | Tablatures and chords are parodies/interpretations of the original songs. You may use it for private study, scholarship, research or language learning purposes only
© 2014 AZChords.com Contact us | Privacy policy | DMCA | Add/correct tabs | Request tabs | Top 50 tabs