» » »

Right Now Tabs (ver.2)

Artists:  A B C D E F G H I J K L M N O P Q R S T U V W X Y Z # 

Right Now Tabs (ver.2)

Akon
Rating:
0/5 (0 votes)

Hard to play? Try these video lessons and learn fast.
                (Intro)
Akon-Right Now (Na Na Na)

Note: this is how i hear the song, it sounds pretty close i think:) 
enjoy:) 


key: h- hammer on
     p- pull off
     /- slide
     ~- hold

Opening rhythm
E---5~---3~---0~-5-3~------|
B---6~-----------6---------|
G---7~---5~---2~-7-5~------|
D---7~---5~---2~-7-5~------|
A---5~---3~---0~-5-3~------|
E--------------------------| 

E---5~---3~---7~-5-3~------|
B---6~--------8~-6---------|
G---7~---5~---9~-7-5~------|
D---7~---5~---9~-7-5~------|
A---5~---3~---7~-5-3~------|
E--------------------------| 

starting of lead
E---5~---3~-----|
B---6~----------|
G---7~---5~-----|
D---7~---5~-----|
A---5~---3~-----|
E---------------|next-
    
Lead 
E---5h6p5----------------------------------|
B---------6/8--8p6h8--6~-------------------|
G---------------------------5-5h7~--5~-----|
D------------------------8~----------------|
A------------------------------------------|
E------------------------------------------|
            
Hard to play? Try these video lessons and learn fast. | Correct




comments powered by Disqus
↑ Back to top | Tablatures and chords are parodies/interpretations of the original songs. You may use it for private study, scholarship, research or language learning purposes only