» » »

Mama Africa Bass tabs (ver.1)

Artists:  A B C D E F G H I J K L M N O P Q R S T U V W X Y Z # 

Mama Africa Bass tabs (ver.1)

Akon
Rating:
4/5 (1 vote)

Hard to play? Try these video lessons and learn fast.
                INTRO:
G-------------------------------------|
D-------------------------------------|
A-------------------------------------|
E--6-6---6-4-4-4--2---6-6---6-4-4-4-6-|
SO MUCH SO MUCH LOVE
SO MUCH
SO TELL ME CAN YOU FEEL IT
SO MUCH SO MUCH YEAH
YA KNOW
MAKE THAT VISIT
SO MUCH SO MUCH LOVE
SO MUCH
SENEGAL CAN YOU FEEL IT
SO MUCH SO MUCH YEAH
SO MUCH
OW!

VERSE:
G----------------------------------------------|
D----------3-3-----3---------------------3---3-|
A----3-4-6-----6-3--------6-6--4-6-6--4-6--6---|
E--6-------------------------------------------|
SO MUCH LOVE TO SHARE
PURE BLACKNESS, ONENESS SO RARE
SO MUCH LOVE TO GIVE
LET THEM KNOW THEY'RE MISSIN' OUT
MAMA AFRICA
HAS SO MUCH LOVE TO SHARE
SWEET BLACKNESS, ONENESS
MEET ME THERE
SO MUCH LOVE TO GIVE
LET THEM KNOW THEY MISSIN' OUT
SING AGAIN

A - THIS FOR ALL THE LOVE
AND THE LIFE TOOK AWAY

F - DON'T FORGET WE WERE BORN IN TRADE

R - ARE RIPPED FROM THE LAND AND SHIPPED AWAY

I - IS THE INSPIRATION WE USED TO SURVIVE

C - HAVE TO SEE IT WITH YOUR OWN CRIES

A - DON'T PLAY, ADD IT UP AND ALRIGHT


G-------3-------------------------------------|
D-3-4-6---6-6--6---6--------------------3---3-|
A----------------6------6-6--4-6-6--4-6---6---|
E---------------------------------------------|
STILL YA DON'T KNOW
LAND IS SO GOLD AND GREEN
THE PLACE IS SO FRESH AND CLEAN
AND EVERYDAY I WATER MY GARDEN
TELL IF YOU FEEL IT DEEP IN YOUR HEART AND
THE SPACE IS SO COOL AND NICE
VISIT ONCE, GUARANTEED TO VISIT TWICE
AND IF YOU JUST BELIEVE IN THE MOST HIGH
I KNOW YOU'LL BE ALRIGHT
MAMA AFRICA


G----------------------------------------------|
D----------3-3-----3---------------------3---3-|
A----3-4-6-----6-3--------6-6--4-6-6--4-6--6---|
E--6-------------------------------------------|
SO MUCH LOVE TO SHARE
PURE BLACKNESS, ONENESS SO A RARE
SO MUCH LOVE TO GIVE
AND LET THEM KNOW THEY'RE MISSIN' OUT
MAMA AFRICA
HAS SO MUCH LOVE TO SHARE
SWEET BLACKNESS, ONENESS
MEET ME THERE
SO MUCH LOVE TO GIVE
AND LET THEM KNOW THEY'RE MISSIN' OUT
SING AGAIN

A
THAT'S MY FAVORITE PLACE WHEN I NEED TO GET AWAY
F
MUST FORGET BUT WE CAN'T FORGET TO PRAY
R
LIKE LANCE RIDIN' ON THE RUNWAY
I
IN MY HOMELAND AND I'M FEELIN' SO ALIVE
C
HEAR ME CHANT AFRICA UNITE
A
GONNA AND ACCEPT THE MASS ALRIGHT


G-------3-------------------------------------|
D-3-4-6---6-6--6---6--------------------3---3-|
A----------------6------6-6--4-6-6--4-6---6---|
E---------------------------------------------|
STILL YA DON'T KNOW
SKIN IS SO DARK AND BROWN
SHE LIFTS ME RIGHT OFF THE GROUND
BUT NO YA NOT GON'SEE IT ON YA TV
SO YO JUST LISTEN UP AND BELIEVE ME
HER TREES HAVE THE ONLY CURE
HER LOVE IS SO NEW AND PURE
HAD TO KISS THEM TROUBLES GOODBYE BYE
NO I DON'T HAVE TO LIE MAMA AFRICA, UNITE


G----------------------------------------------|
D----------3-3-----3---------------------3---3-|
A----3-4-6-----6-3--------6-6--4-6-6--4-6--6---|
E--6-------------------------------------------|
SO MUCH LOVE TO SHARE
PURE BLACKNESS, ONENESS SO A RARE
SO MUCH LOVE TO GIVE
LET THEM KNOW THAT THEY'RE MISSIN' OUT
MAMA AFRICA
SO MUCH LOVE TO SHARE
SWEET BLACKNESS, ONENESS
BE THERE
SO MUCH LOVE TO GIVE
LET THEM KNOW THAT THEY'RE MISSIN' OUT
SING AGAIN

NO BASS LINE:

SO MUCH SO MUCH LOVE
SO MUCH
SO TELL ME CAN YOU FEEL IT
SO MUCH SO MUCH YEAH
SO MUCH
THAN MAKE THAT VISIT
SO MUCH SO MUCH LOVE
SO MUCH
SENEGAL CAN YOU FEEL IT
SO MUCH SO MUCH YEAH
SO MUCH
OW!

G----------------------------------------------|
D----------3-3-----3---------------------3---3-|
A----3-4-6-----6-3--------6-6--4-6-6--4-6--6---|
E--6-------------------------------------------|
SO MUCH LOVE TO SHARE
I JUST CAN'T SEE HOW WE LIVIN' WITHOUT IT
SO MUCH LOVE TO GIVE
DON'T MISS DON'T MISS ONE MOMENT ABOUT IT
SO MUCH LOVE TO SHARE
RESIST THIS BLISS
YO I REALLY DOUBT IT
SO MUCH LOVE TO GIVE
SO MUCH LOVE
SO MUCH LOVE TO SHARE
OH YEAH
PURE BLACKNESS, ONENESS SO A RARE
SO MUCH LOVE TO GIVE
LET THEM KNOW THAT THEY'RE MISSIN' OUT
FEELIN' IT ALL THE TIME
SO MUCH LOVE TO SHARE
SWEET BLACKNESS, ONENESS
MEET ME THERE
SO MUCH LOVE TO GIVE
LET THEM KNOW THEY'RE MISSIN' OUT
SING AGAIN


P.S. LISTEN TO THE SONG SO YOU CAN GET THE TIMING, HAVE FUN
1 LOVE
            
Hard to play? Try these video lessons and learn fast. | Correct




comments powered by Disqus
↑ Back to top | Tablatures and chords are parodies/interpretations of the original songs. You may use it for private study, scholarship, research or language learning purposes only