» » »

Im So Fly Bass tabs (ver.1)

Artists:  A B C D E F G H I J K L M N O P Q R S T U V W X Y Z # 

Im So Fly Bass tabs (ver.1)

Akon
Rating:
0/5 (0 votes)

Tabs too difficult? Try these video lessons and learn fast.
                G|------------------------------------|
D|------------------------------------|
A|---------7~----------------------7--|
E|-5--0-777---00----0-5--0-777-0~-0---|

G|------------------------------------|
D|------------------------------------|  
A|-----------7~---------------------7-|
E|-0-5--0-777---00--0-5--0-777-0~--0--|


the into is the only difference you don't play E
open first. the second part you repeat the rest of the song.
listen to understand obviously. but if you have changes do it!
            
Tabs too difficult? Try these video lessons and learn fast.


comments powered by Disqus
↑ Back to top | Tablatures and chords are parodies/interpretations of the original songs. You may use it for private study, scholarship, research or language learning purposes only