» » »

Akon, Don't Matter Tabs (ver.3)

Artists:  A B C D E F G H I J K L M N O P Q R S T U V W X Y Z # 

Don't Matter Tabs (ver.3)

Akon Tabs
 Rating:
4/5 (4 votes)
Don't Matter lessons Tabs too difficult? Try these video lessons and learn fast
1
                I tried to do my best...

e|---1----1----------------1----1----------1-1--------------------------|
B|-2----1---2-1-1---1----2----1---2-1-1--------3-3-1-1-1--3-1----1-3-4--|
G|----------------3---3-----------------3----------------------3--------|
D|----------------------------------------------------------------------|
A|----------------------------------------------------------------------|
E|----------------------------------------------------------------------|


e|---------1-1----------------------------------------------------------|
B|--3-1--------3-3-1-1-1--3-1----1-3-4--3-1-----------------------------|
G|------3----------------------3------------3---------------------------|
D|----------------------------------------------------------------------|
A|----------------------------------------------------------------------|
E|----------------------------------------------------------------------|


You can find the other part by your self [=

Written by Asaf Kamm
            
Submit corrections

comments powered by Disqus
↑ Back to top | Akon Tabs for Don't Matter. Lyrics for acoustic guitar and electric guitar. 1 Tablatures and chords are parodies/interpretations of the original songs. You may use it for private study, scholarship, research or language learning purposes only