» » »

Beautiful Tabs (ver.4)

Artists:  A B C D E F G H I J K L M N O P Q R S T U V W X Y Z # 

Beautiful Tabs (ver.4)

Akon
Rating:
0/5 (0 votes)

Hard to play? Try these video lessons and learn fast.
                (Intro)
Was playing around with the guitar while listening to Akon and came up with this. 
It's pretty similar to the other intro- but it sounds a little sharper imo.

Saying that, my guitar is a bit out of tune, but, whatever. Enjoy.



E |--13-13-10-10----------------------------------------|
B |--------------10-10-10-11-11-11-8-8-8-8-6-6-6-6-6-6--|
G |-----------------------------------------------------|
D |-----------------------------------------------------|
A |-----------------------------------------------------|
E |-----------------------------------------------------|


E |--13-13-10-10----------------------------------------------|
B |--------------10-10-10-11-11-11-8-8-8-8-11-11-11-11-11-11--|
G |-----------------------------------------------------------|
D |-----------------------------------------------------------|
A |-----------------------------------------------------------|
E |-----------------------------------------------------------|

-Grant
            
Hard to play? Try these video lessons and learn fast. | Correct




comments powered by Disqus
↑ Back to top | Tablatures and chords are parodies/interpretations of the original songs. You may use it for private study, scholarship, research or language learning purposes only