» » »

Akon, Beautiful Tabs (ver.3)

Artists:  A B C D E F G H I J K L M N O P Q R S T U V W X Y Z # 

Beautiful Tabs (ver.3)

Akon Tabs
Rating:
5/5 (1 vote)
Beautiful lessons Tabs too difficult? Try these video lessons and learn fast
                Beautiful-Akon

Intro:
e|--11-11------------9-9-9--11-11-------------------------------------|
B|-----------13-13----------------------------------------------------|
G|--------------------------------------11-11-11---9-9-9-9-9----------|
D|--------------------------------------------------------------------|
A|--------------------------------------------------------------------|
D|--------------------------------------------------------------------|

e|--11-11------------9-9-9--11-11-------------------------------------------|
B|-----------13-13-----------------------------------11-11-11-11-11---------|
G|--------------------------------------11-11-11----------------------------|
D|--------------------------------------------------------------------------|
A|--------------------------------------------------------------------------|
D|--------------------------------------------------------------------------|

Chords: am, f, c, g (x3) (palm mute on ever strum)

That's it! Very easy song. :D
            

comments powered by Disqus
↑ Back to top | Akon Tabs for Beautiful. Lyrics for acoustic guitar and electric guitar. Tablatures and chords are parodies/interpretations of the original songs. You may use it for private study, scholarship, research or language learning purposes only