>
 >
Beautiful

Beautiful Guitar Tabs

Akon - Beautiful chords, tabs, tablatures, lyrics

Guitar lessons | Add/correct | Request | Top 50 tabs Artists:  A B C D E F G H I J K L M N O P Q R S T U V W X Y Z 0-9

Beautiful Guitar Tabs – Akon

CD, Sheet music, Poster

Do you like Beautiful? Share with your friends now
ChordsTabsTabs v2Ukulele

* - palm mute
D - down strum
U - up strum

Double drop-D tuning

Intro / Verse 1
d|-------0~~-------0~~-------0~~-------0~~-|
B|-----------------------------------------|
G|-------------------------4---------2-----|
D|-----7---------5-------4---------2-------|  x2
A|---5---------5-------2---------0---------|
D|-0---------5-----------------------------|

Pre-chorus
   * * * * * * * * * * * * * * * * * * * * * * * * * * * * * * * *
d|-0-0-0-0-0-0-0-0-----------------0-0-0-0-0-0-0-0-0-0-0-0-0-0-0-0-|
B|-7-7-7-7-7-7-7-7-----------------3-3-3-3-3-3-3-3-2-2-2-2-2-2-2-2-|
G|-7-7-7-7-7-7-7-7-----------------4-4-4-4-4-4-4-4-2-2-2-2-2-2-2-2-|
D|-7-7-7-7-7-7-7-7-5-5-5-5-5-5-5-5-4-4-4-4-4-4-4-4-2-2-2-2-2-2-2-2-|  x1
A|-5-5-5-5-5-5-5-5-5-5-5-5-5-5-5-5-2-2-2-2-2-2-2-2-0-0-0-0-0-0-0-0-|
D|-----------------5-5-5-5-5-5-5-5---------------------------------|

Repeat, but end with
   * * *
d|-0-0-0-0-0-0-0-0-|
B|-2-2-2-2-2-2-2-2-|
G|-2-2-2-2-2-2-2-2-|
D|-2-2-2-2-2-2-2-2-|
A|-0-0-0-0-0-0-0-0-|
D|-----------------|

Chorus
   D DU UDU D DU UDU D DU UDU D DU UDU 
d|-0-00-000----------0-00-000-0-00-000-|
B|-7-77-777----------3-33-333-2-22-222-|
G|-7-77-777----------4-44-444-2-22-222-|
D|-7-77-777-5-55-555-4-44-444-2-22-222-|   x2
A|-5-55-555-5-55-555-2-22-222-0-00-000-|
D|----------5-55-555-------------------|

Post-chorus
     * *   * *   *   * *   * *   *   * *   * *   *   * *   * *   *
d|-0-0-0-0-0-0-0-0-----------------0-0-0-0-0-0-0-0-0-0-0-0-0-0-0-0-|
B|-7-7-7-7-7-7-7-7-----------------3-3-3-3-3-3-3-3-2-2-2-2-2-2-2-2-|
G|-7-7-7-7-7-7-7-7-----------------4-4-4-4-4-4-4-4-2-2-2-2-2-2-2-2-|
D|-7-7-7-7-7-7-7-7-5-5-5-5-5-5-5-5-4-4-4-4-4-4-4-4-2-2-2-2-2-2-2-2-|  x1
A|-5-5-5-5-5-5-5-5-5-5-5-5-5-5-5-5-2-2-2-2-2-2-2-2-0-0-0-0-0-0-0-0-|
D|-----------------5-5-5-5-5-5-5-5---------------------------------|

Verse 2
     * *   * *   *   * *   * *   *   * *   * *   *   * *   * *   *
d|-0-0-0-0-0-0-0-0-----------------0-0-0-0-0-0-0-0-0-0-0-0-0-0-0-0-|
B|-7-7-7-7-7-7-7-7-----------------3-3-3-3-3-3-3-3-2-2-2-2-2-2-2-2-|
G|-7-7-7-7-7-7-7-7-----------------4-4-4-4-4-4-4-4-2-2-2-2-2-2-2-2-|
D|-7-7-7-7-7-7-7-7-5-5-5-5-5-5-5-5-4-4-4-4-4-4-4-4-2-2-2-2-2-2-2-2-|  x2
A|-5-5-5-5-5-5-5-5-5-5-5-5-5-5-5-5-2-2-2-2-2-2-2-2-0-0-0-0-0-0-0-0-|
D|-----------------5-5-5-5-5-5-5-5---------------------------------|

Pre-chorus
     * *   * *   *   * *   * *   *   * *   * *   * * * * * * * * *
d|-0-0-0-0-0-0-0-0-----------------0-0-0-0-0-0-0-0-0-0-0-0-0-0-0-0-|
B|-7-7-7-7-7-7-7-7-----------------3-3-3-3-3-3-3-3-2-2-2-2-2-2-2-2-|
G|-7-7-7-7-7-7-7-7-----------------4-4-4-4-4-4-4-4-2-2-2-2-2-2-2-2-|
D|-7-7-7-7-7-7-7-7-5-5-5-5-5-5-5-5-4-4-4-4-4-4-4-4-2-2-2-2-2-2-2-2-|  x1
A|-5-5-5-5-5-5-5-5-5-5-5-5-5-5-5-5-2-2-2-2-2-2-2-2-0-0-0-0-0-0-0-0-|
D|-----------------5-5-5-5-5-5-5-5---------------------------------|

Again, repeat but end with
   * * *
d|-0-0-0-0-0-0-0-0-|
B|-2-2-2-2-2-2-2-2-|
G|-2-2-2-2-2-2-2-2-|
D|-2-2-2-2-2-2-2-2-|
A|-0-0-0-0-0-0-0-0-|
D|-----------------|

Chorus
   D DU UDU D DU UDU D DU UDU D DU UDU 
d|-0-00-000----------0-00-000-0-00-000-|
B|-7-77-777----------3-33-333-2-22-222-|
G|-7-77-777----------4-44-444-2-22-222-|
D|-7-77-777-5-55-555-4-44-444-2-22-222-|   x2
A|-5-55-555-5-55-555-2-22-222-0-00-000-|
D|----------5-55-555-------------------|

Post-chorus

d|-0-0-0-0-0-0-0-0-----------------0-0-0-0-0-0-0-0-0-0-0-0-0-0-0-0-|
B|-7-7-7-7-7-7-7-7-----------------3-3-3-3-3-3-3-3-2-2-2-2-2-2-2-2-|
G|-7-7-7-7-7-7-7-7-----------------4-4-4-4-4-4-4-4-2-2-2-2-2-2-2-2-|
D|-7-7-7-7-7-7-7-7-5-5-5-5-5-5-5-5-4-4-4-4-4-4-4-4-2-2-2-2-2-2-2-2-|  x1
A|-5-5-5-5-5-5-5-5-5-5-5-5-5-5-5-5-2-2-2-2-2-2-2-2-0-0-0-0-0-0-0-0-|
D|-----------------5-5-5-5-5-5-5-5---------------------------------|

Ending
     * *   * *   *   * *   * *   *   * *   * *   *  
d|-0-0-0-0-0-0-0-0-----------------0-0-0-0-0-0-0-0-0~~~~~~~-|
B|-7-7-7-7-7-7-7-7-----------------3-3-3-3-3-3-3-3-2~~~~~~~-|
G|-7-7-7-7-7-7-7-7-----------------4-4-4-4-4-4-4-4-2~~~~~~~-|
D|-7-7-7-7-7-7-7-7-5-5-5-5-5-5-5-5-4-4-4-4-4-4-4-4-2~~~~~~~-|
A|-5-5-5-5-5-5-5-5-5-5-5-5-5-5-5-5-2-2-2-2-2-2-2-2-0~~~~~~~-|
D|-----------------5-5-5-5-5-5-5-5--------------------------|
                                                  (Strum the last chord)





Comments


Popular Akon tabs & chords
Im So Fly Bass Tabs
Beautiful Chords
Dont Matter 6 Chords
Freedom Chords
Right Now Chords
Right Now 5 Chords
Sunny Day Chords
Beautiful Intro 2 Tabs
Dont Matter Ukulele
Mama Africa Ukulele


Song lyrics



↑ Back to top | Tablatures and chords are parodies/interpretations of the original songs. You may use it for private study, scholarship, research or language learning purposes only
© 2014 AZChords.com Contact us | Privacy policy | DMCA | Add/correct tabs | Request tabs | Top 50 tabs