» » »

Akira Yamaoka, Witchcraft Tabs (ver.1)

Artists:  A B C D E F G H I J K L M N O P Q R S T U V W X Y Z # 

Witchcraft Tabs (ver.1)

Akira Yamaoka Tabs
 Rating:
4/5 (4 votes)
Witchcraft lessons Tabs too difficult? Try these video lessons and learn fast
                  Witchcraft                                    


                                                                   Akira Yamaoka



     W                   W                   W                 
E||-------------------|-------------------|-------------------|
B||-------------------|-------------------|-------------------|
G||-------------------|-------------------|-------------------|
D||-------------------|-------------------|-------------------|
A||-------------------|-------------------|-------------------|
E||-------------------|-------------------|-------------------|


  W                   W                   W                   W                 
-------------------|-------------------|-------------------|-------------------|
-------------------|-------------------|-------------------|-------------------|
-------------------|-------------------|-------------------|-------------------|
-------------------|-------------------|-------------------|-------------------|
-------------------|-------------------|-------------------|-------------------|
-------------------|-------------------|-------------------|-------------------|


  W                   W                   W                   W                 
-------------------|-------------------|-------------------|-------------------|
-------------------|-------------------|-------------------|-------------------|
-------------------|-------------------|-------------------|-------------------|
-------------------|-------------------|-------------------|-------------------|
-------------------|-------------------|-------------------|-------------------|
-------------------|-------------------|-------------------|-------------------|


  W                   W                   W                   W                 
-------------------|-------------------|-------------------|-------------------|
-------------------|-------------------|-------------------|-------------------|
-------------------|-------------------|-------------------|-------------------|
-------------------|-------------------|-------------------|-------------------|
-------------------|-------------------|-------------------|-------------------|
-------------------|-------------------|-------------------|-------------------|


  W                   H        H           H        H         
-------------------|--------------------|--------------------|
-------------------|--------------------|--------------------|
-------------------|-----------1--------|--------------------|
-------------------|--3-----------------|--1--------3--------|
-------------------|--------------------|--------------------|
-------------------|--------------------|--------------------|


  H        H           H        H           H        H         
--------------------|--------------------|--------------------|
--------------------|--------------------|--------------------|
-----------1--------|--------------------|-----------1--------|
--3-----------------|--1--------3--------|--3-----------------|
--------------------|--------------------|--------------------|
--------------------|--------------------|--------------------|


  H        H           H        H           H        Q.     T S.  
--------------------|--------------------|-----------------------|
--------------------|--------------------|-----------------------|
--------------------|-----------1--------|-----------------------|
--1--------3--------|--3-----------------|--1--------3-----------|
--------------------|--------------------|--------------------1--|
--------------------|--------------------|-----------------------|


  H.           S S. S.    H        Q    S S. S.    H.           S S. S.  
-----------------------|------------------------|-----------------------|
-----------------------|------------------------|-----------------------|
-----------------------|------------------------|-----------------------|
--3--------------3-----|------------------------|--3--------------3-----|
--------------------4--|--3------------------1--|--------------------4--|
-----------------------|------------------1-----|-----------------------|


  H        Q    S S. S.    H.           S S. S.    H        Q    S S. S.  
------------------------|--1--------------1-----|------------------------|
------------------------|--------------------2--|--1------------------1--|
---------------------3--|-----------------------|------------------------|
------------------3-----|-----------------------|------------------3-----|
--3---------------------|-----------------------|------------------------|
------------------------|-----------------------|------------------------|


  H.           S S. S.    H        H           H        H         
--1--------------1-----|--------------------|--1--------4--------|
--------------------2--|--1-----------------|--------------------|
-----------------------|--------------------|-----------1--------|
-----------------------|--------------------|--3-----------------|
-----------------------|--------------------|--------------------|
-----------------------|--------------------|--------------------|


  H        H           H        H           H        H         
-----------1--------|--1--------4--------|-----------1--------|
--4-----------------|--------------------|--4-----------------|
--------------------|-----------1--------|--------------------|
--1--------3--------|--3-----------------|--1--------3--------|
--------------------|--------------------|--------------------|
--------------------|--------------------|--------------------|


  H        H           H        H           H        H         
--1--------4--------|-----------1--------|--1--------4--------|
--------------------|--4-----------------|--------------------|
-----------1--------|--------------------|-----------1--------|
--3-----------------|--1--------3--------|--3-----------------|
--------------------|--------------------|--------------------|
--------------------|--------------------|--------------------|


  H        H           E  H        Q.        E  H        Q    S S  
-----------1--------|---------------------|-----------------------|
--4-----------------|--1------------------|-----------------------|
--------------------|-----1---------------|-----1-----------------|
--1--------3--------|--------------3------|--3------------------3-|
--------------------|---------------------|-----------------------|
--------------------|---------------------|-----------------------|


  |--3--|                                                                
  E  E  E  Q    Q.     S S    H        Q.     S S    Q.     E  H         
---------------------------|----------------------|---------------------|
---------------------------|----------------------|---------------------|
-----3---------------------|--3-------------------|---------------------|
--3-----1--3-------------3-|--------------------3-|--3---------3--------|
---------------------------|----------------------|---------4-----------|
---------------------------|----------------------|---------------------|


  Q.     S S Q    E.  S    S Q    S S E  Q    E.     E  S E  Q.     S. S. E   
------------------------|-------------------------|--------------------------|
------------------------|--1----------------------|--------------------1-----|
------------------------|----3--------------------|-----------------------3--|
-------------3----------|-------------3-----------|-----3-3------------------|
-----------4----------4-|---------1-4-------------|-----------------4--------|
------------------------|-------------------------|--------------------------|


  Q    S S Q    Q    S S    Q.     H        S S    Q.     Q.     S E.   
-------------------------|----------------------|----------------------|
-------------------------|----------------------|----------------------|
-------------------------|----------------------|----------------------|
--3--------3---------3---|---------3--------3---|--3-------------1-----|
---------4-------------3-|--3-----------------3-|--3------1--------3---|
-------------------------|----------------------|----------------------|


  H        Q    Q       W                   H        H         
---------------------|-------------------|--------------------|
---------------------|-------------------|--------------------|
---------------------|-------------------|--------------------|
--1------------------|--3----------------|--1--------3--------|
-----------1----4----|--1----------------|--------------------|
--4------------------|-------------------|--------------------|


  H        H           H.           E  T  S.   H.           E  T  S. 
--------------------|--------------------13-|--1-----------------13-|
--------------------|-----------------------|-----------------------|
--------------------|-----------------------|-----------------------|
--3--------1--------|--3--------------------|-----------------------|
--------------------|-----------------------|-----------------------|
--------------------|-----------------------|-----------------------|


  H.           E  T  S.   H.           S S. S.    H.           E  T  S. 
--1-----------------13-|--1--------------9--8--|--1-----------------13-|
-----------------------|-----------------------|-----------------------|
-----------------------|-----------------------|-----------------------|
-----------------------|-----------------------|-----------------------|
-----------------------|-----------------------|-----------------------|
-----------------------|-----------------------|-----------------------|


  H.           S S. S.    H.           E  T  S.   H.           S S. S.  
--1--------------9--8--|--1-----------------13-|--1--------------9--8--|
-----------------------|-----------------------|-----------------------|
-----------------------|-----------------------|-----------------------|
-----------------------|-----------------------|-----------------------|
-----------------------|-----------------------|-----------------------|
-----------------------|-----------------------|-----------------------|


  Q    H.              H        H           H        H         
--1-----------------|--1--------4--------|-----------1--------|
--------------------|--------------------|--4-----------------|
--------------------|-----------1--------|--------------------|
--------------------|--3-----------------|--1--------3--------|
--------------------|--------------------|--------------------|
--------------------|--------------------|--------------------|


  H        H           H        H           H        H         
--1--------4--------|-----------1--------|--1--------4--------|
--------------------|--4-----------------|--------------------|
-----------1--------|--------------------|-----------1--------|
--3-----------------|--1--------3--------|--3-----------------|
--------------------|--------------------|--------------------|
--------------------|--------------------|--------------------|


  H        H           H        H           H        H         
-----------1--------|--1--------4--------|-----------1--------|
--4-----------------|--------------------|--4-----------------|
--------------------|-----------1--------|--------------------|
--1--------3--------|--3-----------------|--1--------3--------|
--------------------|--------------------|--------------------|
--------------------|--------------------|--------------------|


  W                  
--1----------------||
-------------------||
-------------------||
--3----------------||
-------------------||
-------------------||




Duration Legend
---------------
W - whole
H - half
Q - quarter
E - 8th
S - 16th
T - 32nd
X - 64th
. - note dotted
|-n-|  - n-tuplets


Tablature Legend
----------------
L - tied note
x - dead note
g - grace note
(n) - ghost note
> - accentuded note
NH - natural harmonic
AH - artificial harmonic
TH - tapped harmonic
SH - semi harmonic
PH - pitch harmonic
h - hammer on
p - pull off
b - bend
br - bendRelease
pb - preBend
pbr - preBendRelease
brb - bendReleaseBend
\n/ - tremolo bar dip
\n - tremolo bar dive
-/n - tremolo bar Release up
/n\ - tremolo bar inverted dip
/n - tremolo bar return
-\n - tremolo bar Release down
S - shift slide
s - legato slide
/ -  slide into from below or out of upwards
\ -  slide into from above or out of downwards
~ - vibrato
W - wide vibrato
tr - trill
TP - tremolo picking
T - tapping
S - slap
P - pop
< - fade in
^ - brush up
v - brush down
            
Submit corrections

comments powered by Disqus
↑ Back to top | Akira Yamaoka Tabs for Witchcraft. Lyrics for acoustic guitar and electric guitar. Tablatures and chords are parodies/interpretations of the original songs. You may use it for private study, scholarship, research or language learning purposes only