» » »

Akira Yamaoka, Claw Finger Tabs (ver.1)

Artists:  A B C D E F G H I J K L M N O P Q R S T U V W X Y Z # 

Claw Finger Tabs (ver.1)

Akira Yamaoka Tabs
Rating:
0/5 (0 votes)
Claw Finger lessons Tabs too difficult? Try these video lessons and learn fast
                ----------------------------------------------------------------------------
----------------------------------------------------------------------------


Listen to the song first to get the timing right

Tuning: E a d g b e (Standard)

e|---------------------------------------------------------------------------|
B|---------------------------------------------------------------------------|
G|---------------------------------------------------------------------------|
D|---------------------------------3-----------------------------------------|
A|---4---------4---------4--------3--4---------------------------------------|
E|-1---1-----1----1----1---1----1------1---X2--------------------------------|

e|---------------------------------------------------------------------------|
B|-----------------------------------------------------------5------5-----5--|
G|------------------------------------5------5------5-----5------------------|
D|---------------------------------3------1------3-----1---------------------|
A|---6~~~~~--------6~~~~~----------------------------------------------------|
E|---------3--4--3-------3--4--3---------------------------------------------|

e|---------------------------------------------------------------------------|
B|---5--4--------------------------------------------------------------------|
G|---------------------------------------------------------------------------|
D|---------------------------------------------------------------------------|
A|----------4----Repeat from beginning---------------------------------------|
E|---------------------------------------------------------------------------|

| /  slide up
| \  slide down
| h  hammer-on
| p  pull-off
| ~  vibrato
| +  harmonic
| x  Mute note
===============================================================================
            

comments powered by Disqus
↑ Back to top | Akira Yamaoka Tabs for Claw Finger. Lyrics for acoustic guitar and electric guitar. Tablatures and chords are parodies/interpretations of the original songs. You may use it for private study, scholarship, research or language learning purposes only