» » »

Aj Rafael, When We Say (Juicebox) Tabs (ver.2)

Artists:  A B C D E F G H I J K L M N O P Q R S T U V W X Y Z # 

When We Say (Juicebox) Tabs (ver.2)

Aj Rafael Tabs
 Rating:
4/5 (4 votes)
When We Say (Juicebox) lessons Tabs too difficult? Try these video lessons and learn fast
                Intro/Verse
e|---------------------------------------------------------------|
B|---------------------------------------------------------------|
G|--9-8-9-8-----9-8-9-8----9-8-9-8-----2-2----4-4----------------|
D|--9-9-9-9-----9-9-9-9----9-9-9-9-----2-2----4-4----------------|
A|--7-7-7-7-----------------------------------2-2----------------|
E|--------------x-x-x-x----9-9-9-9-----2-2-----------------------|

Chorus
e|---------------------------------------------------------------|
B|---------------------------------------------------------------|
G|--2-2----4-4----6-6-----------2-2----4-4-----------------------|
D|--2-2----4-4----6-6-----------2-2----4-4-----------------------|
A|---------2-2----4-4------------------2-2-----------------------|
E|--x-x-------------------------2-2------------------------------|

Bridge
e|---------------------------------------------------------------|
B|---------------------------------------------------------------|
G|--2-2----4-4----2-2----4-4-------------------------------------|
D|--2-2----4-4----2-2----4-4-------------------------------------|
A|-----------------------2-2-------------------------------------|
E|--2-2----4-4----x-x--------------------------------------------|

e|-----------------------2---------------------------------------|
B|-----------------------3---------------------------------------|
G|--2-2----4-4----2-2----2-2-------------------------------------|
D|--2-2----4-4----2-2------2-------------------------------------|
A|---------------------------------------------------------------|
E|--2-2----4-4----x-x--------------------------------------------|

e|---------------2-2----5-5---7-7--------------------------------|
B|---------------2-2----5-5---7-7--------------------------------|
G|--2-2-2-2------3-3----6-6---8-8--------------------------------|
D|--2-2-2-2------4-4----7-7---9-9--------------------------------|
A|---------------4-4----7-7---9-9--------------------------------|
E|--x-x-x-x------2-2----5-5---7-7--------------------------------|

Post Bridge/Chorus
e|--5----7----7----------5----4----4-----------------------------|
B|--5----7----7----------5----4----5-----------------------------|
G|--6----8----9----------6----5----6-----------------------------|
D|--7----9----9----------7----6----6-----------------------------|
A|--7----9----7----------7----6----4-----------------------------|
E|--5----7---------------5----4----4-----------------------------|

e|---------------------------------------------------------------|
B|--2------------------------------------------------------------|
G|--2----1----4----4---------------------------------------------|
D|--2----2----4----2---------------------------------------------|
A|-------2----2----4---------------------------------------------|
E|-----------------x---------------------------------------------|

e|--2-2----5---7---------2-2-------------------------------------|
B|--2-2----5---7---------2-2-------------------------------------|
G|--3-3----6---8---9-9---3-3-------------------------------------|
D|--4-4----7---9---9-9---4-4-------------------------------------|
A|--4-4----7---9---------4-4-------------------------------------|
E|--2-2----5---7---9-9---2-2-------------------------------------|

e|---------------------------------------------------------------|
B|---------------------------------------------------------------|
G|--2-2----4-4-----------9---------------------------------------|
D|--2-2----4-4-----------9---------------------------------------|
A|---------2-2-----------7---------------------------------------|
E|--2-2----------------------------------------------------------|

That should give you an idea. Listen to the song to get the strumming down.

When We Say (Juicebox) LYRICS (c)2009:

somethin bout the way
somethin bout the way you look
in my eyes
you make everything so damn easy 
so easy that i dont got to worry bout a thing

and baby when we touch
all i can see is the image of us
sitting by the ocean
just before the dusk
sippin on a juice box and 
sand between our toes

this is the part when we say were in love
and the part where we have our first kiss
but this ain't a movie
i know you cant come with me
you got your life
he better be treatin you right

just tell me you dont love me
tell me you dont feel the same way that i do
tell me i dont make you smile
like i do when you walk in the room
you're so hard to let go

this is the part when we say were in love
and the part where we say it's forever
but this ain't a fantasy 
i know you can't come with me 
you got your life
he better be treatin you right

this hurts so much to know that you're
with someone else when you should be w me
its just hard to accept that i cant be around
he better be treatin you good
i'm no einstein but i know a sign
when i see one
and i know you love me too
            
Submit corrections

comments powered by Disqus
↑ Back to top | Aj Rafael Tabs for When We Say (Juicebox). Lyrics for acoustic guitar and electric guitar. Tablatures and chords are parodies/interpretations of the original songs. You may use it for private study, scholarship, research or language learning purposes only