» » »

She Was Mine Tabs (ver.2)

Artists:  A B C D E F G H I J K L M N O P Q R S T U V W X Y Z # 

She Was Mine Tabs (ver.2)

Aj Rafael
Rating:
3/5 (2 votes)

Hard to play? Try these video lessons and learn fast.
                -------------------------------------------------------------------------
She Was Mine              (AJ Rafael Ft. Jesse Barrera)
-------------------------------------------------------------------------
Well i am not entirely sure that this is correct so bare with me. Although this sounds 



Tuning: eBGDAE (Standard Tuning)


            (play this twice one for the Intro and once for the Verse)

Intro/Verse 1
e|------------x-----------x----------x----------x-|
B|--10--10-10-x-----------x--8--8--8-x--6--6--6-x-|
G|--9---9-----x--8--8--8--x--8--8----x--7--7----x-|
D|--10--10----x--8--8-----x--7--7----x--7--7----x-|
A|--8---8-----x-----------x--8--8----x----------x-|
E|------------x--8--8-----x----------x--6--6----x-|

So I hopped on a train,
3 in the afternoon
I don't know when I'm coming back,
but i hope that its soon
See I never thought (never thought)
that I'd have to leave your side (your side)
Its only physically,
but i know that you'll be on my mind, 24 hours at a time
Cause in my eyes,
you were mine (you were mine)

Chorus
(It repeats afew times you should be able to figure out when to stop)
e|----------x-----------x----------x----------x-|
B|----------x--3--3--3--x----------x--5--5--5-x-|
G|--3--3--3-x--3--3-----x--5--5--5-x--5--5----x-|
D|--3--3----x--2--2-----x--5--5----x--4--4----x-|
A|----------x--3--3-----x----------x--5--5----x-|
E|--3--3----x-----------x--5--5----x----------x-|

No matter where you go,
I wont be very far
Cause in my head I'll be right there
where you are
Cause love has no distance baby
Love, love has no distance baby
No, not when it come to you and me

Verse 2

e|------------x-----------x----------x----------x-|
B|--10--10-10-x-----------x--8--8--8-x--6--6--6-x-|
G|--9---9-----x--8--8--8--x--8--8----x--7--7----x-|
D|--10--10----x--8--8-----x--7--7----x--7--7----x-|
A|--8---8-----x-----------x--8--8----x----------x-|
E|------------x--8--8-----x----------x--6--6----x-|


See she wrote me a letter
Said the weather wasn't better
But she said that she was doing fine
She Was Mine lyrics on
I wanna see you face to face
That's what she wrote to me that day
And i knew that it was all a sign
So I wrote back with this song
Promised to won't be too long
Wanna make up for all our lost time
Cause in my eyes,
you were mine (you were mine)

Chorus
e|----------x-----------x----------x----------x-|
B|----------x--3--3--3--x----------x--5--5--5-x-|
G|--3--3--3-x--3--3-----x--5--5--5-x--5--5----x-|
D|--3--3----x--2--2-----x--5--5----x--4--4----x-|
A|----------x--3--3-----x----------x--5--5----x-|
E|--3--3----x-----------x--5--5----x----------x-|

No matter where you go,
I wont be very far
Cause in my head I'll be right there
where you are
Cause love has no distance baby
Love, love has no distance baby
No, not when it come to you and me

Verse 3 (Single Strums/Picking *Slow Down The Tempo)
e|------------x-----------x----------x----------x-|
B|--10--10-10-x-----------x--8--8--8-x--6--6--6-x-|
G|--9---9-----x--8--8--8--x--8--8----x--7--7----x-|
D|--10--10----x--8--8-----x--7--7----x--7--7----x-|
A|--8---8-----x-----------x--8--8----x----------x-|
E|------------x--8--8-----x----------x--6--6----x-|

See she wrote me a letter
Said the weather wasn't better
But she said that she was doing fine
She Was Mine lyrics on
I wanna see you face to face
That's what she wrote to me that day
And i knew that it was all a sign
So I wrote back with this song
Promised to won't be too long
Wanna make up for all our lost time
Cause in my eyes,
you were mine (you were mine)

Chorus x2
e|----------x-----------x----------x----------x-|
B|----------x--3--3--3--x----------x--5--5--5-x-|
G|--3--3--3-x--3--3-----x--5--5--5-x--5--5----x-|
D|--3--3----x--2--2-----x--5--5----x--4--4----x-|
A|----------x--3--3-----x----------x--5--5----x-|
E|--3--3----x-----------x--5--5----x----------x-|

No matter where you go,
I wont be very far
Cause in my head I'll be right there
where you are
Cause love has no distance baby
Love, love has no distance baby
No, not when it come to you and me
            
Hard to play? Try these video lessons and learn fast. | Correct




comments powered by Disqus
↑ Back to top | Tablatures and chords are parodies/interpretations of the original songs. You may use it for private study, scholarship, research or language learning purposes only