» » »

Aiza Seguerra, Para Lang Sayo Tabs (ver.2)

Artists:  A B C D E F G H I J K L M N O P Q R S T U V W X Y Z # 

Para Lang Sayo Tabs (ver.2)

Aiza Seguerra Tabs
Rating:
5/5 (1 vote)
Para Lang Sayo lessons Tabs too difficult? Try these video lessons and learn fast
                (Intro)
Para Lang Sayo - Aiza Seguerra

Inspired by love of my life,my one and only bhabymizth

Tuning:EADGBe

note: capo on the 5th fret like aiza at her live performance..
      yun tab ko po nkasulat po sya sa no capo pero wid capo 
      po yan sa 5th fret. sabayan nio po sa kanta para sa timing.
      and slow plucking lng mga bords! enjoy..!!

intro:

e|--------------------0-----------------------1--------|
B|-0-1-3--3-----3---3----3------3----3----0---0-0---1--|
G|----------0-----0-----------2-----2----2--2-----2-0--|
D|--------x---2----------x--0------0----0--0-----------|
A|--------3--------------2--------2--0-2---------------|
E|-----------------------------------------------------|

e|-3--3---2----2---0h2-2~-|
B|-x--3-----3----3--------|
G|------2-2--2-2---2------|
D|-0----------------------|
A|------------------------|
E|------------------------|
  end for intro..

  this tabs goes to my one and only bhabymitzh..
  cant help my self not to fall inlove w/ you..
  each day i love you,every minutes i'l fall for you..
  your my reason and my inspiration of all that i do..
  SIGNED:mitzhniiane 01/01/08..I LOVE YOU!!!
  

Godbless!!!


| /  slide up
| \  slide down
| h  hammer-on
| p  pull-off
| ~  vibrato
| +  harmonic
| x  Mute note
            
Submit corrections

comments powered by Disqus
↑ Back to top | Aiza Seguerra Tabs for Para Lang Sayo. Lyrics for acoustic guitar and electric guitar. Tablatures and chords are parodies/interpretations of the original songs. You may use it for private study, scholarship, research or language learning purposes only