» » »

Aiza Seguerra, Para Lang Sayo Tabs (ver.1)

Artists:  A B C D E F G H I J K L M N O P Q R S T U V W X Y Z # 

Para Lang Sayo Tabs (ver.1)

Aiza Seguerra Tabs
 Rating:
4/5 (4 votes)
Para Lang Sayo lessons Tabs too difficult? Try these video lessons and learn fast
1
                Title :  Para Lang Sayo

hi guys this is my first tab sana magustuhan nyo!! enjoy! add nyo muna  qa s friendster 
yan.

Capo on 5th fret

Intro:

e[---------------------------0--------------------------------------]
B[--0---1---3-3--------1---1---1---------3--------3-------0---------]
G[-------------------0---0-------------2--------2-------2-----------]
D[-----------------2-----------------0--------0-------0-------------]
A[---------------3-----------------2--------2-------2---------------]
E[------------------------------------------------------------------]

e[--------0------------3--3--2-0-0-2h-------------------------------]
B[------1---1--------3----------------------------------------------]
G[----0-------0----2------------------------------------------------]
D[--2---------------------------------------------------------------]
A[------------------------------------------------------------------]
E[------------------------------------------------------------------]

Verse:

e[----------0--------------0----1---------0-------------------------]
B[--------0---0----------0------0-------------3-------3---3-------0-]
G[------2-------2------2--------2-----2------------0------------2---]
D[------------------------------0---0------------2------------0-----]
A[--------------------------------------------3-------3---2---------]
E[---3--------------3-----------------------------------------------]

e[---------------------0--------------------------------------------]
B[------3----0-------1----------------------------------------------]
G[-----2----2------0------------------------------------------------]
D[----0----0-----2--------------------------------------------------]
A[---2----2---------------------------------------------------------]
E[------------------------------------------------------------------](3x)

Chorus: mejo tamad na ako sakit na mata ko kea eto muna! pero sure ako jan!

e[------------------------------------------------------------------]
B[-------------3-------3------------------------3-------3-----------]
G[-----------0-------2------------------------0-------2-------------]
D[---------2-------0------------------------2-------0---------------]
A[-------3-------2------------------------3-------2-----------------]
E[------------------------------------------------------------------]
    Para sayo ako'y iibig pang muli Dahil sayo

e[------------------------------------------------------------------]
B[---------3-----0--------------------------------------------------]
G[-------2-----2----------------------------------------------------]
D[-----0------0-----------------------------------------------------]
A[---2------2-------------------------------------------------------]
E[------------------------------------------------------------------]
    ako'y iibig pang muli

paxenxa na sa mga makakakita nito! alam ko ung whole song pero d ko natalaga kaya sakit 
ulot ko next time kumple2 na ^_^
            
Submit corrections

comments powered by Disqus
↑ Back to top | Aiza Seguerra Tabs for Para Lang Sayo. Lyrics for acoustic guitar and electric guitar. 1 Tablatures and chords are parodies/interpretations of the original songs. You may use it for private study, scholarship, research or language learning purposes only