» » »

I Can't Understand Chords (ver.1)

Artists:  A B C D E F G H I J K L M N O P Q R S T U V W X Y Z # 

I Can't Understand Chords (ver.1)

Air Traffic
Rating:
0/5 (0 votes)

Hard to play? Try these video lessons and learn fast.
                OK, This is the whole song, Tabs and Chords by Jason Biddlecombe

Intro riff (also played on chorus)

 Ab               Eb             C#           Eb
e-------------------------------11-8-11-8-11--11-9-9-11-11-9-9-|
B--11-9-11-9-11---11-8-11-8-11-9----9----9---8-----------------|
G-8----8----8----8----8----8-----------------------------------|
D--------------------------------------------------------------|
A--------------------------------------------------------------|
E--------------------------------------------------------------|

(VERSE 1)
Eb          Bb             Cm    Bb
So come on down and let it out
Eb          Bb       Cm   Bb
Walk me through the corridors of fear
Eb         Bb              Cm     Bb
It's not a dream without a doubt
    Eb     Bb      Cm       Bb           Ab    C#
You try so hard to shut the feelings the out

Then this riff comes over the chords;
e-3-3-3-3----------------------------|
B---------3-3-3-3b^--3b\/-3----------|
G-----------------------------3ho---0|
D------------------------------------|
A------------------------------------|
E------------------------------------|

e-6-6-6-6-------------------------------|
B---------3-3-3-3b^-3b\/----------------|
G-----------------------------3ho-----0-|
D---------------------------------------|
A---------------------------------------|
E---------------------------------------|

(VERSE 2)
Eb      Bb                Cm     Bb
I lie awake and watch the stars
  Eb     Bb       Cm       Bb
A cry so far from where we are
Eb         Bb                Cm     Bb
And in the haze of shattered light
  Eb             Bb         Cm      Bb       
  C#
I break from the chains and drift into the night

(INTRO RIFF STARTS)
(CHORUS)
    Ab            Eb                C#    Eb
Cos I can't understand what's going on
Ab           Eb                 C#      Eb
I can't understand what's going on

(VERSE 3 same chords)
And now it seems so long ago
We talked for hours and missed the last train home
But are we weightless being blown
Far from the heart and far from all we've known

(CHORUS 2 same chords)
Cos I can't understand what's going on
I can't understand what's going on

BRIDGE (SAME CHORDS AS CHORUS)
(Slightly Distorted Guitar)

You said our love transcends this life
Now I know it's true
So I cut my hands and I close my eyes
So I can feel it too

Intro Build up...
(CHORUS 3)
Cos I can't understand what's going on
I can't understand what's going on
            
Hard to play? Try these video lessons and learn fast. | Correct




comments powered by Disqus
↑ Back to top | Tablatures and chords are parodies/interpretations of the original songs. You may use it for private study, scholarship, research or language learning purposes only