>
 >
Hooting Star

Hooting Star Guitar Tabs

Air Traffic - Hooting Star chords, tabs, tablatures, lyrics

Guitar lessons | Add/correct | Request | Top 50 tabs Artists:  A B C D E F G H I J K L M N O P Q R S T U V W X Y Z 0-9

Hooting Star Guitar Tabs – Air Traffic

CD, Sheet music, Poster

Do you like Hooting Star? Share with your friends now
Tabs
I made this tab since i didnt think the tabs already posted where very accurate, or 
enough. So I'm compiling my own thoughts along with some things already posted to give a 
complete tab of this song.

The main part to the song is played on piano. But if you want to add a rythm guitar 
it's fairly simple.

This is the main chord progression throughout the song's verses:
Am G F G
Dm C Am G


Then during the chorus:
F C G Dm

The ammount of strokes is more of a guideline, but its fairly straight forward once you 
to the song.

Lead Gtr.
1st Chorus.
e|---------------------------------------------------------------------------|
B|----13-13-13-13-13---15-15-15-15-15---13-13-13-13-13------------12---------|
G|-14---------------14---------------14---------------14-14-12-14---14b-12h14|
D|---------------------------------------------------------------------------|
A|---------------------------------------------------------------------------|
E|---------------------------------------------------------------------------|

e|---------------------------------------------------------------------------|
B|----13-13-13-13-13---15-15-15-15-15---13-13-13-13-13------------12---------|
G|-14---------------14---------------14---------------14-14-12-14---14b-12h14|
D|---------------------------------------------------------------------------|
A|---------------------------------------------------------------------------|
E|---------------------------------------------------------------------------|

2nd Chorus.
e|---------------------------------------------------------------------------------------|
B|---------------13-13-13-13-13---15-15-15-15-15---13-13-13-13-13------------12----------|
G|-14-14-14-14-14---------------14---------------14---------------14-14-12-14---14b-12h14|
D|---------------------------------------------------------------------------------------|
A|---------------------------------------------------------------------------------------|
E|---------------------------------------------------------------------------------------|

e|---------------------------------------------------------------------------|
B|----13-13-13-13-13---15-15-15-15-15---13-13-13-13-13------------12---------|
G|-14---------------14---------------14---------------14-14-12-14---14b-12h14|
D|---------------------------------------------------------------------------|
A|---------------------------------------------------------------------------|
E|---------------------------------------------------------------------------|

e|---------------------------------------------------------------------------|
B|------------------13-13-13-13-13-13-12-12-12-12-12-12-15-15-15-15-15-15----|
G|-14-14-14-14-14-14---------------------------------------------------------|
D|---------------------------------------------------------------------------|
A|---------------------------------------------------------------------------|
E|---------------------------------------------------------------------------|

e|------------------------------------------------------------------------------------|
B|------------------13-13-13-13-13-13-12-12-12-12-12-12-15-15-15-15-15-15-------------|
G|-14-14-14-14-14-14-----------------------------------------------------14-14-12-14--|
D|------------------------------------------------------------------------------------|
A|------------------------------------------------------------------------------------|
E|------------------------------------------------------------------------------------|


3rd Chorus.
e|---------------------------------------------------------------------------------------|
B|---------------13-13-13-13-13---15-15-15-15-15---13-13-13-13-13------------12----------|
G|-14-14-14-14-14---------------14---------------14---------------14-14-12-14---14b-12h14|
D|---------------------------------------------------------------------------------------|
A|---------------------------------------------------------------------------------------|
E|---------------------------------------------------------------------------------------|

e|---------------------------------------------------------------------------|
B|----13-13-13-13-13---15-15-15-15-15---13-13-13-13-13------------12---------|
G|-14---------------14---------------14---------------14-14-12-14---14b-12h14|
D|---------------------------------------------------------------------------|
A|---------------------------------------------------------------------------|
E|---------------------------------------------------------------------------|

e|---------------------------------------------------------------------------|
B|------------------13-13-13-13-13-13-12-12-12-12-12-12-15-15-15-15-15-15----|
G|-14-14-14-14-14-14---------------------------------------------------------|
D|---------------------------------------------------------------------------|
A|---------------------------------------------------------------------------|
E|---------------------------------------------------------------------------|

e|------------------------------------------------------------------------------------|
B|------------------13-13-13-13-13-13-12-12-12-12-12-12-15-15-15-15-15-15-------------|
G|-14-14-14-14-14-14-----------------------------------------------------14-14-12-14--|
D|------------------------------------------------------------------------------------|
A|------------------------------------------------------------------------------------|
E|------------------------------------------------------------------------------------|


Solo.
e|--------------------------------------------------------------------------|
B|-----8--------------------------------------------------------------------|
G|-7/9---9-7-5-7-5---5--------------------5--5--7--7-7-7--------------------|
D|-----------------7---7--7-7-7-5-7-7-7-7--7--------------------------------|
A|--------------------------------------------------------------------------|
E|--------------------------------------------------------------------------|


e|--------------------------------------------------------------------------|
B|-----8--------------------------------------------------------------------|
G|-7/9---9-7-5-7-5---5--------------------5--5--7--7-7-7--------------------|
D|-----------------7---7--7-7-7-5-7-7-7-7--7--------------------------------|
A|--------------------------------------------------------------------------|
E|--------------------------------------------------------------------------|

*I know this bit isnt correct, but i cant figure it out.Any suggestions? this sounds 
good anyway...
e|---------------------------8-8/7-7-7-7-7/10-10-10-------------------------|
B|-----8-----8-8/10-10-10-10------------------------------------------------|
G|-7/9---9-7----------------------------------------------------------------|
D|--------------------------------------------------------------------------|
A|--------------------------------------------------------------------------|
E|--------------------------------------------------------------------------|*

e|--------------------------------------------------------------------------|
B|-----8--------------------------------------------------------------------|
G|-7/9---9-7-5-7-5---5--------------------5--5--7--7-7-7--------------------|
D|-----------------7---7--7-7-7-5-7-7-7-7--7--------------------------------|
A|--------------------------------------------------------------------------|
E|--------------------------------------------------------------------------|

e|---------------------------8-8/7-7-7-7-7/10-10-10-------------------------|
B|-----8-----8-8/10-10-10-10------------------------------------------------|
G|-7/9---9-7----------------------------------------------------------------|
D|--------------------------------------------------------------------------|
A|--------------------------------------------------------------------------|
E|--------------------------------------------------------------------------|

e|--------------------------------------------------------------------------|
B|-----8--------------------------------------------------------------------|
G|-7/9---9-7-5-7-5---5--------------------5--5--7--7-7-7--------------------|
D|-----------------7---7--7-7-7-5-7-7-7-7--7--------------------------------|
A|--------------------------------------------------------------------------|
E|--------------------------------------------------------------------------|

e|-----------------------------------------8-8-8/7-7-7-7/------------------|
B|-----8-------------------------------------------------------------------|
G|-7/9---9-7/5-7-5---5-----------------------------------------------------|
D|-----------------7---7--7-7-7-5-7-7/-------------------------------------|
A|-------------------------------------------------------------------------|
E|-------------------------------------------------------------------------|


e|--------------------------------------------------------------------------|
B|-----8--------------------------------------------------------------------|
G|-7/9---9-7/5-7-5---5--5-5-5-5/7-7-7-7/9-9-9-12-12/14-14-14----------------|
D|-----------------7--------------------------------------------------------|
A|--------------------------------------------------------------------------|
E|--------------------------------------------------------------------------|


Outro.
e|---------------------------------------------------------------------------|
B|-13-13-13-13-13-13/12-12-12-12-12-12/15-15-15-15-15-15---------------------|
G|-------------------------------------------------------14-14-14-14-14-14---|
D|---------------------------------------------------------------------------|
A|---------------------------------------------------------------------------|
E|---------------------------------------------------------------------------|

e|------------------------------------------------------------------------------|
B|-/13-13-13-13-13-13/12-12-12-12-12-12/15-15-15-15-15-15-----------------------|
G|-------------------------------------------------------14-14-14-14-14-14------|
D|------------------------------------------------------------------------------|
A|------------------------------------------------------------------------------|
E|------------------------------------------------------------------------------|

e|---------------------------------------------------------------------------|
B|-13-12---13-12--13-12-13-12--13-12--13-12-13-12--13-12--13-12-13-15-15-15--|
G|-------14-----14-----------14-----14-----------14-----14-------------------|
D|---------------------------------------------------------------------------|
A|---------------------------------------------------------------------------|
E|---------------------------------------------------------------------------|

e|------------------------------------------------------------------------------------|
B|------------------13-13-13-13-13-13-12-12-12-12-12-12-15-15-15-15-15-15-------------|
G|-14-14-14-14-14-14-----------------------------------------------------14-14-12-14--|
D|------------------------------------------------------------------------------------|
A|------------------------------------------------------------------------------------|
E|------------------------------------------------------------------------------------|


Legend.
/ slide.
b bend.
h hammer on.


Thanks to coolkidandy and dave's contributions also.





Comments


Popular Air Traffic tabs & chords
Shooting Star Bass Tabs
I Can't Understand Chords
I Like That Chords
Shooting Star 1 Chords
Shooting Star 2 Chords
Your Fractured Life Tabs
Empty Space Ukulele
I Like That Ukulele
Time Goes By Ukulele
Your Fractured Life Ukulele


Song lyrics



↑ Back to top | Tablatures and chords are parodies/interpretations of the original songs. You may use it for private study, scholarship, research or language learning purposes only
© 2014 AZChords.com Contact us | Privacy policy | DMCA | Add/correct tabs | Request tabs | Top 50 tabs