» » »

Air Traffic, Get In Line Tabs (ver.1)

Artists:  A B C D E F G H I J K L M N O P Q R S T U V W X Y Z # 

Get In Line Tabs (ver.1)

Air Traffic Tabs
 Rating:
4/5 (9 votes)
Get In Line lessons Tabs too difficult? Try these video lessons and learn fast
1
                
GET IN LINE

 INTRO (x4)

    E   D   B   Bb  E  (strum the last E 4 times) 
e|--------------------------|
B|--------------------------|
G|--9---7---4---3---9-------|
D|--------------------------|
A|--7---5---2---1---7-------|
E|--------------------------|


VERSE (x4)

Em B C D (barre chords on the high frets)


INTRO (x2)


VERSE (X4)


CHORUS (x4) (barre chords)

G E C D


INTRO (x2)


VERSE (X4)


CHORUS (X4)  End chorus on G (after the D)


     G
e|-------------|  Lots distortion, feedback. 
B|---12--------|
G|---12--------|
D|-------------|
A|---10--------|
E|-------------|


CHORUS (x8)

Solo (first 4 bars)

SOLO 

e|---------------------------------------------------|
B|---12--12--12--12--12--12--12--13--12--10----------| 
G|---------------------------------------------------|

e|--------------------------------------------------|
B|---12--12--12--12--12--12--12--13--12--10---------| 
G|--------------------------------------------------|

e|-----------------------10-10-10--| 
B|---8--8--8--8--8--8--8-----------| 
G|---------------------------------|

e|-----------------------10-10-10--| 
B|---8--8--8--8--8--8--8-----------| 
G|---------------------------------|

OTURO (x2)

G E D C  (Play each note twice Without ring((holding down)))  End On G 

cheers dave
            
Submit corrections

comments powered by Disqus
↑ Back to top | Air Traffic Tabs for Get In Line. Lyrics for acoustic guitar and electric guitar. 1 Tablatures and chords are parodies/interpretations of the original songs. You may use it for private study, scholarship, research or language learning purposes only