» » »

Aiden, Unbreakable Tabs (ver.1)

Artists:  A B C D E F G H I J K L M N O P Q R S T U V W X Y Z # 

Unbreakable Tabs (ver.1)

Aiden Tabs
 Rating:
4/5 (4 votes)
Unbreakable lessons Tabs too difficult? Try these video lessons and learn fast
                -----------------------------------------------------------------------
                             unbreakable
-----------------------------------------------------------------------


Tuning:Db Ab Db Gb Bb eb

intro
|---3---3--|
|--4-4-4-4-|
|-5---5----|
|----------|
|----------|
|----------|

intro verse
|-----------------------------------------------------------------|
|-----------------------------------------------------------------|
|-6---4---2---4---6---4---2---4---6---4---2---4---6---4---2---4---|
|-6---4---2---4---6---4---2---4---6---4---2---4---6---4---2---4---|
|-4---2---0---2---4---2---0---2---4---2---0---2---4---2---0---2---|
|-----------------------------------------------------------------|

drum role

verse 2
|------------------------------------------|
|------------------------------------------|
|-6666666644444444444444442222222244444444-|
|-6666666644444444444444442222222244444444-| x2
|-4444444422222222222222220000000022222222-|
|------------------------------------------|
pm ***************                        
chorus
|------------------------------------------|
|------------------------------------------|
|-6666666644444444444444442222222244444444-|
|-6666666644444444444444442222222244444444-| x2
|-4444444422222222222222220000000022222222-|
|------------------------------------------|

verse 3
|----------------------------------------------------------|
|----------------------------------------------------------|
|-------------------------------------------------44444444-|
|-----6-----6---6-----4-----4---4-----2-----2---2-44444444-|x2
|-4-4---4-4---4---2-2---2-2---2---0-0---0-0---0---22222222-|
|----------------------------------------------------------|
pm* *   * *   *   * *   * *   *   * *   * *   * 

repeat chorus 

repeat intro verse lets call this the bridge

post bridge
|------------------------------------------|
|------------------------------------------|
|-6666666644444444444444442222222244444444-|
|-6666666644444444444444442222222244444444-| x2
|-4444444422222222222222220000000022222222-|
|------------------------------------------|
pm****************************************

repeat verse 2

repeat chorus

outro
|-------------|
|-------------|
|-4---2---4~--|
|-4---2---4~--|
|-2---0---2~--|
|-------------|

please rate!
            
Submit corrections

comments powered by Disqus
↑ Back to top | Aiden Tabs for Unbreakable. Lyrics for acoustic guitar and electric guitar. Tablatures and chords are parodies/interpretations of the original songs. You may use it for private study, scholarship, research or language learning purposes only