» » »

Aiden, The Devils Eyes Tabs (ver.1)

Artists:  A B C D E F G H I J K L M N O P Q R S T U V W X Y Z # 

The Devils Eyes Tabs (ver.1)

Aiden Tabs
 Rating:
4/5 (4 votes)
The Devils Eyes lessons Tabs too difficult? Try these video lessons and learn fast
                -------------------------------------------------------------------------------
                      THE DEVIL'S EYES TAB - Aiden
-------------------------------------------------------------------------------


Tuning: Drop C, sort of. You can tune your guitar to CGCGBE. All you would have to do is 
tune the low 3 strings.  So you can make that deep and low C5 chord through out the 
song. I will tab the song as CGCGBe.

There are two guitars for this song, at least I believe so, and I will tab out both of them.

Guitar 1: Epic slide and sustain
e|---------|
B|---------|
G|------0~-|
C|-12/0-0~-|
G|-12/0-0~-|
C|-12/0-0~-|

Guitar 2: Main melancholy riff
e|----------------------------------------------|
B|----------------------------------------------|
G|----------------------------------------------|
C|----------------------------------------------|
G|-----0-0-1-1-0-0------------0-0-1-1-0-0-0h3p0-|
C|-0-0-------------3-5-3--0-0-------------------|

Repeat the loud C5 in the beginning (minus the slide) and the Guitar 2's riff then comes

(Both guitars)
All Hail The Dark One...
e|---------------------------------------|
B|---------------------------------------|
G|0--000-------0--000-------8~----7~-10--|
C|0--000-------0--000-------8~----7~-10--|
G|0--000-------0--000-------8~----7~-10--|
C|0--000-------0--000-------8~----7~-10--| Repeat

Then back to Guitar 1 with sustain
e|----|
B|----|
G|-0~-|
C|-0~-|
G|-0~-|
C|-0~-|

And Guitar 2's riff
e|----------------------------------------------|
B|----------------------------------------------|
G|----------------------------------------------|
C|----------------------------------------------|
G|-----0-0-1-1-0-0------------0-0-1-1-0-0-0h3p0-|
C|-0-0-------------3-5-3--0-0-------------------|Repeat sustain and riff

End
Guitar 1
E|-----------|
B|-----------|
G|-8-7-3-5-0-|
C|-8-7-3-5-0-|
G|-8-7-3-5-0-|
C|-8-7-3-5-0-|

Guitar 2
e|-----------|
B|-----------|
G|-----------|
C|-3-5-7-8-7-|
G|-----------|
C|-----------|

...devil's eyes.
            
Submit corrections

comments powered by Disqus
↑ Back to top | Aiden Tabs for The Devils Eyes. Lyrics for acoustic guitar and electric guitar. Tablatures and chords are parodies/interpretations of the original songs. You may use it for private study, scholarship, research or language learning purposes only