» » »

Dawn Breaking Tide Tabs (ver.1)

Artists:  A B C D E F G H I J K L M N O P Q R S T U V W X Y Z # 

Dawn Breaking Tide Tabs (ver.1)

Aiden
Rating:
4/5 (7 votes)

Tabs too difficult? Try these video lessons and learn fast.
                Aiden-"The Dawn Breaking Tide"

Our Gangs Dark Oath


Tuning: Db Ab Db Gb Bb Eb

Angel Ibarra-Gtr 1
Jake Wambold-Gtr2




Intro & Verse (Riffs A)

Gtr.1

eb|--------------------------|---|---------------------------|
bb|--------------------------|---|---------------------------|
gb|--------------------------|---|---------------------------|
db|-----7--7--7--7--5--4--4-5|3x-|---------------------------|
ab|--------------------------|---|--5*--4*-------------------|
Db|-0-0--0--0--0--0--0--0----|---|---------------------------|
                                                             |
                                                             |
                           1.                        2.      |
Gtr.2                     |----------------------|-----------|                       
eb|----------------------------------------------|--|--------|
bb|----------------------------------------------|--|--------|
gb|----------------------------------------------|--|--------|
db|-----------------7----------------------------|x2|-5---7--|
ab|-----9--4--5--7--7--5-4----4h5---5----4h5----5|--|-5---7--|
Db|-0-0--0--0--0--0--0-----0-0---0-0--0-0----0-0-|--|-5*--7*-|


I Can Feel The Winter Air..

(Riff B, Clean)
eb|-------------------------------|
bb|---10------10-------10-----10--|
gb|-----11------11-------11-----11|
db|-9-------9--------9-------9----|
ab|-------------------------------|
Db|-------------------------------|



And Were Almost Home Now....

(Riffs C)
eb|--------------------------------------------|
bb|--------------------------------------------|
gb|--------------------------------------------|
db|-5-----4------------------------------------|
ab|----------------5--------4---pick slide-----|
Dd|--------------------------------------------|
                                               |
                                               |
eb|--------------------------------------------|
bb|--------------------------------------------|
gb|--------------------------------------------|
db|-5-5-5-5-5-5-5-5--7-7-7-7-7-7-7-7-----------|
ab|-5-5-5-5-5-5-5-5--7-7-7-7-7-7-7-7-----------|
Db|-5-5-5-5-5-5-5-5--7-7-7-7-7-7-7-7-----------|



(Riffs C2)
eb|--------------------------------------------------------------------|
bb|--------------------------------------------------------------------|
gb|--------------------------------------------------------------------|
db|-5-4--5-4--5-4------------------------------------------------------|
ab|---------------5-4--------------------------------------------------|
Db|--------------------------------------------------------------------|
                                                                       | 
eb|-----------------------------------------------------------------|--|
bb|-----------------------------------------------------------------|--|
gb|-----------------------------------------------------------------|--|
db|-9-9-9-9-9-9-9-9-9-9-9-9-9-9-9-9--5-5-5-5-5-5-5-5-7-7-7-7-7-7-7-7|2x|
ab|-9-9-9-9-9-9-9-9-9-9-9-9-9-9-9-9--5-5-5-5-5-5-5-5-7-7-7-7-7-7-7-7|--|
Db|-9-9-9-9-9-9-9-9-9-9-9-9-9-9-9-9--5-5-5-5-5-5-5-5-7-7-7-7-7-7-7-7|--|

Go Back and Play Riffs A 1 time 

Mini Break

eb------------------|
bb------------------|
gb-------------7/---|
db-5-5-5---5---5/---|
ab-5-5-5---5--------|
Db-5-5-5---5--------|
                    |
eb------------------|
bb------------------|
gb-------------7----|
db-5-5-5---5---5----|
ab-5-5-5---5--------|
Db-5-5-5---5--------|

Harmonizing Riffs

Gtr1.

eb|-----------------------------------------------|--|------|
bb|-----------------------------------------------|--|------|
gb|-----------------------------------------------|--|------|
db|-4--4-5---5-7--7-5-4-2--4--4-5---5-7--7-5-4-2-4|x2|------|
ab|--2----------------------2---------------------|--|------|
Db|--------5----7-----------------5-----7---------|--|------|
                                                            |
                                                            |
                                                1.  2.      |
Gtr 2.                                         |---|--------|
eb|------------------------------------------------|--------|
bb|------------------------------------------------|--------|
gb|------------------------------------------------|--------|
db|-------7-5-4-------9-7-5-------7-5-4-2-4-5-4-2-0|-7-9-7-5|
ab|-2-4-5-------2-4-5-------2-4-5------------------|--------|
Db|------------------------------------------------|--------|


Now, Go And Play Riff B 1x


Both Guitars
eb|-------------|---|
bb|-------------|---|
gb|-------------|---|
db|-5-5-5--5-5--|2x-|
ab|-5-5-5--5-5--|---|
Dd|-5-5-5--5-5--|---|

Riff B Gets Played Again While Gtr 1. Plays

eb|------------------------
bb|------------------------
gb|-7-7-7--9-9-9--11-11-11-
db|-x-x-x--x-x-x--x--x--x--
ab|-5-5-5--7-7-7--9--9--9--
Db|------------------------

Our Lives Depend On The Dawn Breaking Tide...

eb|--------------------------------------------------------------------|
bb|--------------------------------------------------------------------|
gb|--------------------------------------------------------------------|
db|-4-4-4-4-4-4-4-4-4-4-4-4-4-4-4-7-7-7-7-7-7-7-9-9-9-9-9-9-9-12--10-12|
ab|-2-2-2-2-2-2-2-2-2-2-2-2-2-2-2-5-5-5-5-5-5-5-7-7-7-7-7-7-7-10--9--10|
Db|--------------------------------------------------------------------|

I Worked On This For Hours Making Sure Every Note Was In Place

Please Tell Me If This Is Good/Bad/Okay
            
Tabs too difficult? Try these video lessons and learn fast.




comments powered by Disqus
↑ Back to top | Tablatures and chords are parodies/interpretations of the original songs. You may use it for private study, scholarship, research or language learning purposes only