» » »

See You In Hell Tabs (ver.1)

Artists:  A B C D E F G H I J K L M N O P Q R S T U V W X Y Z # 

See You In Hell Tabs (ver.1)

Aiden
Rating:
0/5 (0 votes)

Hard to play? Try these video lessons and learn fast.
                INTRO
guitar 1
|------------|------------|------------|------------|
|------------|------------|------------|------------|
|------------|------------|------------|------------|
|-6666666666-|-4444444444-|-2222222222-|-2222222222-|
|-6666666666-|-4444444444-|-2222222222-|-2222222222-|
|-4444444444-|-2222222222-|-0000000000-|-0000000000-|
guitar 2
|------------|------------|------------|------------|
|------------|-55555-4444-|------------|------------|
|-33333-4444-|------------|-4444444444-|-4444444444-|
|------------|------------|------------|------------|
|------------|------------|------------|------------|
|------------|------------|------------|------------|
VERSE
guitar 1
|--------------|--------------|--------------|--------------|
|--------------|--------------|--------------|--------------|
|-4343-3h4p3h4-|-4343-3h4p3h4-|-4343-3h4p3h4-|-4364-3h4p3h4-|
|--------------|--------------|--------------|--------------|
|--------------|--------------|--------------|--------------|
|--------------|--------------|--------------|--------------|
guitar 2
|--------------|--------------|--------------|--------------|
|--------------|--------------|--------------|--------------|
|--------------|--------------|--------------|--------------|
|--------------|-444444444444-|-222222222222-|-444444444444-|
|--------------|-444444444444-|-222222222222-|-444444444444-|
|--------------|-222222222222-|-000000000000-|-222222222222-|
PM               ............   ............   ............
guitar 2 second time on verse
|--------------|--------------|--------------|--------------|
|--------------|--------------|--------------|--------------|
|--------------|--------------|--------------|--------------|
|-666666666666-|-444444444444-|-222222222222-|-444444444444-|
|-666666666666-|-444444444444-|-222222222222-|-444444444444-|
|-444444444444-|-222222222222-|-000000000000-|-222222222222-|
PM............   ............   ............   ............
PRE CHORUS
guitar 1
|--------------|--------------|--------------|--------------|
|--------------|--------------|--------------|--------------|
|--------------|--------------|--------------|--------------|
|-222222222222-|-444444444444-|-222222222222-|-4------------|
|-222222222222-|-444444444444-|-222222222222-|-4------------|
|-000000000000-|-222222222222-|-000000000000-|-2------------|
guitar 2
|--------------|-------2------|--------------|--------------|
|-------5-4----|--------------|-------5-4----|--------------|
|-3-4-3--------|-3-4-3--------|-3-4-3--------|-3-4----------|
|--------------|--------------|--------------|--------------|
|--------------|--------------|--------------|--------------|
|--------------|--------------|--------------|--------------|
CHORUS (same as intro)
BRIDGE
both guitars

|------------|------------|------------|------------|
|------------|------------|------------|------------|
|------------|------------|------------|------------|
|-66-------6-|-44-------4-|-2222222222-|-2222222222-|
|-66-------6-|-44-------4-|-2222222222-|-2222222222-|
|-44-------4-|-22-------2-|-0000000000-|-0000000000-|

|------------|------------|------------|------------|
|------------|------------|------------|------------|
|------------|------------|------------|------------|
|-6666666666-|-4444444444-|-2222222222-|-2222222222-|
|-6666666666-|-4444444444-|-2222222222-|-2222222222-|
|-4444444444-|-2222222222-|-0000000000-|-0000000000-|
PM  .......      .......      .......      .......
            
Hard to play? Try these video lessons and learn fast. | Correct




comments powered by Disqus
↑ Back to top | Tablatures and chords are parodies/interpretations of the original songs. You may use it for private study, scholarship, research or language learning purposes only