>
 >
One Love

One Love Bass Tabs

Aiden - One Love chords, tabs, tablatures, lyrics

Guitar lessons | Add/correct | Request | Top 50 tabs Artists:  A B C D E F G H I J K L M N O P Q R S T U V W X Y Z 0-9

One Love Bass Tabs – Aiden

CD, Sheet music, Poster

Do you like One Love? Share with your friends now
Bass TabsChordsTabsTabs v2Ukulele
This A bass tab for the Aiden song, "One Love" off of the album CONVICTION. This
is my first tab so sorry if its a little sloppy.

Tuning: Standard  (E A D G)
Bassist: Nick Wiggins

INTRO/MAIN RIFF   0:0-0:6   [x1]
G:-----------------------------|
D:-----------------------------|
A:00000000--33333333--77777777-|
E:-----------------------------|

PRE-VERSE       0:7-0:13       [x1]
G:------------------------------------|
D:------------------------------5--57-|
A:00000000--33333333--77777777----7---|
E:------------------------------------|

MAIN RIFF/VERSE    0:14-0:32  [x3]
G:-----------------------------|
D:-----------------------------|
A:00000000--33333333--77777777-|
E:-----------------------------|

PRE-CHORUS    0:33-0:39 [x1]
G:------------------------------------|
D:------------------------------5--57-|
A:00000000--33333333--77777777----7---|
E:------------------------------------|

CHORUS      0:40-0:52   [x2]
G--------------------------------------|
D--------------------------------------|
A--------------------------------------|
E11111---33333---55555----333333-------|

CHORUS OUTRO 0:53-0:59   [x1]
G--------------------------------------|
D--------------------------------------|
A--------------------------------------|
E11111---33333---55555----3~-----------|

MAIN RIFF/VERSE    1:00-1:05     [x1]
G:-----------------------------|
D:-----------------------------|
A:00000000--33333333--77777777-|
E:-----------------------------|

PRE-VERSE     1:06-1:13       [x1]
G:------------------------------------|
D:------------------------------5--57-|
A:00000000--33333333--77777777----7---|
E:------------------------------------|

MAIN RIFF/VERSE 1:14-1:32  [x3]
G:-----------------------------|
D:-----------------------------|
A:00000000--33333333--77777777-|
E:-----------------------------|

MAIN RIFF/PRE-CHORUS   1:33-1:39 [x1]
G:------------------------------------|
D:------------------------------5--57-|
A:00000000--33333333--77777777----7---|
E:------------------------------------|

CHORUS 1:40-1:58    [x3]
G--------------------------------------|
D--------------------------------------|
A--------------------------------------|
E11111---33333---55555----333333-------|

CHORUS OUTRO 1:59-2:05  [x1]
G--------------------------------------|
D--------------------------------------|
A--------------------------------------|
E11111---33333---55555----3~-----------|

MAIN RIFF/BRIDGE 2:06-2:12 [x1]
G:-----------------------------|
D:-----------------------------|
A:00000000--33333333--77777777-|
E:-----------------------------|


BRIDGE OUTRO     2-13-2:19[x1]
G:------------------------------------|
D:------------------------------5--57-|
A:00000000--33333333--77777777----7---|
E:------------------------------------|

MAIN RIFF/VERSE  2:20-2:25 [x1]
G:-----------------------------|
D:-----------------------------|
A:00000000--33333333--77777777-|
E:-----------------------------|

MAIN RIFF/ PRE-CHORUS 2:26-2:31 [x1]
G:------------------------------------|
D:------------------------------5--57-|
A:00000000--33333333--77777777----7---|
E:------------------------------------|

CHORUS   2:32-2:58 [x4]
G--------------------------------------|
D--------------------------------------|
A--------------------------------------|
E11111---33333---55555----333333-------|

OUTRO  2:59-3-11 [x2]
G--------------------------------------|
D--------------------------------------|
A--------------------------------------|
E11111---33333---55555----333333-------|

End 3:12-3:23 [x1]
G---
D---
A---
E1~-


~ = Let Ring





Comments


Popular Aiden tabs & chords
We Sleep Forever Bass Tabs
Silent Eyes Chords
Die Romantic Intro 1 Tabs
Die, Die My Darling Tabs
Genetic Design For Dying 2 Tabs
Hysteria Tabs
Its Cold Tonight Intro Tabs
Knife Blood Nightmare 2 Tabs
Knife Blood Nightmare 3 Tabs
Looking Glass Eyes Tabs


Song lyrics



↑ Back to top | Tablatures and chords are parodies/interpretations of the original songs. You may use it for private study, scholarship, research or language learning purposes only
© 2014 AZChords.com Contact us | Privacy policy | DMCA | Add/correct tabs | Request tabs | Top 50 tabs