>
 >
One Love

One Love Guitar Tabs

Aiden - One Love chords, tabs, tablatures, lyrics

Guitar lessons | Add/correct | Request | Top 50 tabs Artists:  A B C D E F G H I J K L M N O P Q R S T U V W X Y Z 0-9

One Love Guitar Tabs – Aiden

CD, Sheet music, Poster

Do you like One Love? Share with your friends now
Bass TabsChordsTabsTabs v2Ukulele
Aiden - One Love
Conviction

Standard Tuning




  Intro & Verse 
  Guitar 1 :Clean w/ Delay
e|---------------------|-------------------------|
B|---------------------|-------------------------|
G|----5----------4-----|----5----------4----4-5--|
D|--7----7-----7----7--|--7----7-----7----7------|
A|---------------------|-------------------------|
E|---------------------|-------------------------|




  Chorus 1
  Guitar 1 :Dist. w/ Delay
e|--------------------------|-----------------------------|
B|------------------8--8----|-----------------------------|
G|----10--10-9-----9--------|----10--10-9-----------------| x2
D|--7-----------7-------10--|--7----------7--9-7-9-10-10--|
A|--------------------------|-----------------------------|
E|--------------------------|-----------------------------|
 

e|--------------------------|-----------------------------|
B|------------------8--8----|-----------------------------|
G|----10--10-9-----9--------|--9--------------------------| 
D|--7-----------7-------10--|--7--------------------------|
A|--------------------------|-----------------------------|
E|--------------------------|-----------------------------|
 |
 |
 |
 |
 |
 |Chorus 
 |Guitar 2 :Distortion
e|-----------------|-----------------|-----------------|-----------------|
B|-----------------|-----------------|-----------------|-----------------|
G|-----------------|-----------------|-----------------|-----------------|x2
D|-3-3-3-3-3-3-3-3-|-5-5-5-5-5-5-5-5-|-7-7-7-7-7-7-7-7-|-5-5-5-5-5-5-5-5-|
A|-3-3-3-3-3-3-3-3-|-5-5-5-5-5-5-5-5-|-7-7-7-7-7-7-7-7-|-5-5-5-5-5-5-5-5-|
E|-1-1-1-1-1-1-1-1-|-3-3-3-3-3-3-3-3-|-5-5-5-5-5-5-5-5-|-3-3-3-3-3-3-3-3-| 

e|-----------------|-----------------|-----------------|-----------------|
B|-----------------|-----------------|-----------------|-----------------|
G|-----------------|-----------------|-----------------|-----------------| 
D|-3-3-3-3-3-3-3-3-|-5-5-5-5-5-5-5-5-|-7---------------|-----------------|
A|-3-3-3-3-3-3-3-3-|-5-5-5-5-5-5-5-5-|-7---------------|-----------------|
E|-1-1-1-1-1-1-1-1-|-3-3-3-3-3-3-3-3-|-5---------------|-----------------|






Verse 2





  Chorus 2
  Guitar 1 :Dist. w/ Delay
e|--------------------------|-----------------------------|
B|------------------8--8----|-----------------------------|
G|----10--10-9-----9--------|----10--10-9-----------------| x3
D|--7-----------7-------10--|--7----------7--9-7-9-10-10--|
A|--------------------------|-----------------------------|
E|--------------------------|-----------------------------|
 

e|--------------------------|-----------------------------|
B|------------------8--8----|-----------------------------|
G|----10--10-9-----9--------|------9-10--9------9-9-------| 
D|--7-----------7-------10--|--7------------7---------7---|
A|--------------------------|-----------------------------|
E|--------------------------|-----------------------------|
 |
 |
 |
 |
 |
 |
 |Chorus 
 |Guitar 2 :Distortion
e|-----------------|-----------------|-----------------|-----------------|
B|-----------------|-----------------|-----------------|-----------------|
G|-----------------|-----------------|-----------------|-----------------|x3
D|-3-3-3-3-3-3-3-3-|-5-5-5-5-5-5-5-5-|-7-7-7-7-7-7-7-7-|-5-5-5-5-5-5-5-5-|
A|-3-3-3-3-3-3-3-3-|-5-5-5-5-5-5-5-5-|-7-7-7-7-7-7-7-7-|-5-5-5-5-5-5-5-5-|
E|-1-1-1-1-1-1-1-1-|-3-3-3-3-3-3-3-3-|-5-5-5-5-5-5-5-5-|-3-3-3-3-3-3-3-3-| 

e|-----------------|-----------------|-----------------|-----------------|
B|-----------------|-----------------|-----------------|-----------------|
G|-----------------|-----------------|-----------------|-----------------| 
D|-3-3-3-3-3-3-3-3-|-5-5-5-5-5-5-5-5-|-7---------------|-----------------|
A|-3-3-3-3-3-3-3-3-|-5-5-5-5-5-5-5-5-|-7---------------|-----------------|
E|-1-1-1-1-1-1-1-1-|-3-3-3-3-3-3-3-3-|-5---------------|-----------------|









Bridge
Guitar 2 : Distortion w/ Effect
e|-------------|---------------|------------|------------|
B|-------------|---------------|------------|------------|
G|-------------|---------------|------------|------------|
D|-------------|---------------|------------|------------|
A|--15--14-----|-14-15---14-15-|-15--14-----|-12--10-----|
E|-------------|---------------|------------|------------|




e|-------------|---------------|------------|------------|
B|-------------|---------------|------------|------------|
G|-------------|---------------|------------|------------|
D|-------------|---------------|------------|------------|
A|--15--14-----|-14-15---14-15-|-15--14-----|-20--19-----|
E|-------------|---------------|------------|------------|






Verse 3


Chorus 3








  Outro 
  Guitar 1 :Dist. w/ Delay
e|--------------------------|-----------------------------|
B|------------------8--8----|-----------------------------| x2
G|----10--10-9-----9--------|----10--10-9-----------------| 
D|--7-----------7-------10--|--7----------7--9-7-9--------|
A|--------------------------|-----------------------------|
E|--------------------------|-----------------------------|

 
e|--------------------------|
B|--------------------------|
G|-9------------------------| 
D|-7------------------------|
A|--------------------------|
E|--------------------------|
 |
 |
 |
 |
 |
 |
 |Chorus 
 |Guitar 2 :Distortion
e|-----------------|-----------------|-----------------|-----------------|
B|-----------------|-----------------|-----------------|-----------------|
G|-10--10--10--10--|-----------------|-----------------|-----------------|x2
D|-10--10--10--10--| 5-5-5-5-5-5-5-5-|-7-7-7-7-7-7-7-7-|-5-5-5-5-5-5-5-5-|
A|-8---8---8---8---|-5-5-5-5-5-5-5-5-|-7-7-7-7-7-7-7-7-|-5-5-5-5-5-5-5-5-|
E|-----------------|-3-3-3-3-3-3-3-3-|-5-5-5-5-5-5-5-5-|-3-3-3-3-3-3-3-3-| 

e|-----------------|
B|-----------------|
G|-----------------| 
D|-3---------------|
A|-3---------------|
E|-1---------------|
 |
 |
 |
 |
 |
 |
 |Guitar 3 :Distortion
e|-------------------------|    |----------------|
B|-10-10-10-10-10-10-10-10-|    |-10-------------|
G|-------------------------| x4 |----------------|
D|-7--7--7--7--7--7--7--7--|    |-7--------------|
A|-------------------------|    |----------------|
E|-------------------------|    |----------------|



| /  slide up
| \  slide down
| h  hammer-on
| p  pull-off
| ~  vibrato
| +  harmonic
| x  Mute note
====================================================================





Comments


Popular Aiden tabs & chords
Elizabeth Bass Tabs
Last Sunrise Bass Tabs
Teenage Queen Chords
Crusifiction Tabs
Hysteria Tabs
One Love 1 Tabs
Silent Eyes 1 Tabs
There Will Be Blood Tabs
We Sleep Forever 4 Tabs
One Love Ukulele


Song lyrics



↑ Back to top | Tablatures and chords are parodies/interpretations of the original songs. You may use it for private study, scholarship, research or language learning purposes only
© 2014 AZChords.com Contact us | Privacy policy | DMCA | Add/correct tabs | Request tabs | Top 50 tabs