>
 >
Moment

Moment Guitar Tabs

Aiden - Moment chords, tabs, tablatures, lyrics

Guitar lessons | Add/correct | Request | Top 50 tabs Artists:  A B C D E F G H I J K L M N O P Q R S T U V W X Y Z 0-9

Moment Guitar Tabs – Aiden

CD, Sheet music, Poster

Do you like Moment? Share with your friends now
Bass TabsChordsTabsTabs v2Tabs v3Tabs v4Tabs v5Ukulele
okay here is the song,both guitars,in this tuning DGCFAD!
!!!!!updated 4/29/09!!!!!

------------
Jake W
------------
Intro (Clean)
d|-----------------------------------------------|
A|-----------------------------------------------|
F|-----------------------------------------------|
C|-----------------------------------------------|
G|---5/12~---1/7~----------5~---3~---1~----------|
D|-----------------------------------------------|

Verse 2x
d|-----------------------------------------------------------------|
A|-----------------------------------------------------------------|
F|-----------------------------------------------------------------|
C|-----------------------------------------------------------------|
G|--11111110-33333330-55555550-33333330---111111110-555550-333330--|
D|-----------------------------------------------------------------|
PM  ........ ........ ........ ........   ......... ...... ...... 

1st Chorus (Distortion)
d|----------------------------------------------------------|
A|----------------------------------------------------------|
D|----777777777-----------333333333-------------------------|
C|----777777777-777777777-333333333-333333333---------------|
G|----555555555-777777777-111111111-333333333---------------|
D|--------------555555555-----------111111111---------------|
1st Chorus (Continued)                           
d|---------------------------------------------|------------|
A|---------------------------------------------|------------|
D|----777777777-555555555-333333333-555555555--|--5~--------|
C|----777777777-555555555-333333333-555555555--|--5~--------|
G|----555555555-333333333-111111111-333333333--|--3~--------|
D|---------------------------------------------|------------|
                                             ending chorus ^
2nd Verse     2nd Verse continued 2x
d|-----------|--------------------------------------------------------|
A|-----------|--5--6-6-6-6-5-5-5-5-6-6-6-6-5-5-5-5-6--6-6-6-6-5-5-5-5-|
D|-----------|--4--5-5-5-5-4-4-4-4-5-5-5-5-4-4-4-4-5--5-5-5-5-4-4-4-4-|
C|-pick slide|--------------------------------------------------------|
G|-pick slide|--------------------------------------------------------|
D|-pick slide|--------------------------------------------------------|
2nd Verse Ending 
d|---------------|
A|---------------|
D|---------------|
C|-pick slide----|
G|-pick slide----|
D|-pick slide----|

Chorus 2x

Then

Bridge 2x
d|----------------------------------------------------------|
A|----------------------------------------------------------|
D|-333333333-555555555-333333333-777777777-555555555--------|
C|-333333333-555555555-333333333-777777777-555555555--------|
G|-111111111-333333333-111111111-555555555-333333333--------|
D|----------------------------------------------------------|
(After 2nd Time)
d|--------------------------------|
A|--------------------------------|
D|--333333333-555555--6~----------|
C|--333333333-555555--6~----------|
G|--111111111-333333--4~----------|
D|--------------------------------|

Chorus 2x

Done

-----------
ANGEL
-----------
Intro (Clean)
d|------------------------------------------------------------|
A|----------------13--10--11----------------13--11--10--------|
F|----------10----------------------10------------------------|
C|---10/12-----10------------10/12------10--------------------|
G|------------------------------------------------------------|
D|------------------------------------------------------------|
Intro (Continued)
d|------------------------------|
A|----------------13--10--11----|
F|----------10------------------|
C|---10/12-----10---------------|
G|------------------------------|
D|------------------------------|

Pre-Chorus (Clean)
d|---------------------------------------------|
A|---------------------------------------------|
F|---------------------------------------------|
C|-----3----3------2-----2---------------------|
G|--1-1-1-1--1--3-3-3--3---3-------------------|
D|---------------------------------------------|

1st Chorus                     
d|-------------------------------------------------------------|
A|----------------13--11--10----------------11-10--10----------|
F|----------10----------------------10----------------10-------|
C|---10/12-----10------------10/12------10---------------------|
G|-------------------------------------------------------------|
D|-------------------------------------------------------------|
Chorus Continued
d|-----------------------------------------------------------------|
A|----------------13--11--10----------------11-10--11--10----------|
F|----------10----------------------10--------------------10-------|
C|---10/12-----10------------10/12------10-------------------------|
G|-----------------------------------------------------------------|
D|-----------------------------------------------------------------|

2nd Verse about 6x
d|-------------------------------------------------------|
A|----------10-------------------10------10--------------|
F|--7--9-7-----10~------7--9-7------10~-----10~----------|
C|-------------------------------------------------------| 
G|-------------------------------------------------------|
D|-------------------------------------------------------|

Chorus 4x

then

Bridge 4x
d|-------------------------|
A|-----10~-13-10~----------|
F|---9~--------------------|
C|-------------------------|
G|-------------------------|
D|-------------------------|

He does something after that but its really hard to figure out

Chorus 4x

then

Outro (Clean)
d|------------------------------------------------------------|
A|----------------13--10--11----------------13--11--10--------|
F|----------10----------------------10------------------------|
C|---10/12-----10------------10/12------10--------------------|
G|------------------------------------------------------------|
D|------------------------------------------------------------|
Intro (Continued)
d|------------------------------|
A|----------------13--10--11----|
F|----------10------------------|
C|---10/12-----10---------------|
G|------------------------------|
D|------------------------------|


Done.
BIG THANX to all who helped me with the tuning figuration!
****PLEASE RATE****





Comments


Popular Aiden tabs & chords
Fifteen 2 Bass Tabs
Bridge Of Reason Shore Of Faith Intro Tabs
Dawn Breaking Tide Tabs
Goodbye We're Falling Fast 1 Tabs
Horror Queen Intro Tabs
I Set My Friends On Fire 3 Tabs
Knife Blood Nightmare 3 Tabs
Unbreakable Tabs
She Will Love You Ukulele
The Sky Is Falling Ukulele


Song lyrics



↑ Back to top | Tablatures and chords are parodies/interpretations of the original songs. You may use it for private study, scholarship, research or language learning purposes only
© 2014 AZChords.com Contact us | Privacy policy | DMCA | Add/correct tabs | Request tabs | Top 50 tabs