» » »

Its Cold Tonight Tabs (ver.1)

Artists:  A B C D E F G H I J K L M N O P Q R S T U V W X Y Z # 

Its Cold Tonight Tabs (ver.1)

Aiden
Rating:
4/5 (4 votes)

Hard to play? Try these video lessons and learn fast.
                (Intro)
Guitar One
--------------------------------------------------------------------------|
--------------------------------------------------------------------------|
--------------------------------------------------------------------------|
--8--------------4---------------6--------------------6-------------------|
--8--------------4---------------6--------------------6-------------------|
--6--------------2---------------4--------------------4-------------------|


-1-------1-4p1---2p1---4p1------1-------1--4--2--1------------------------|
---2---2--------------------2-----2---2-------------2---------------------|
-----3------------------------------3-------------------------------------|
--------------------------------------------------------------------------|
--------------------------------------------------------------------------|
--------------------------------------------------------------------------|

Played twice. Listen to the intro for the rythem.
            
Hard to play? Try these video lessons and learn fast. | Correct




comments powered by Disqus
↑ Back to top | Tablatures and chords are parodies/interpretations of the original songs. You may use it for private study, scholarship, research or language learning purposes only