>
 >
Its Cold Tonight

Its Cold Tonight Guitar Tabs

Aiden - Its Cold Tonight chords, tabs, tablatures, lyrics

Guitar lessons | Add/correct | Request | Top 50 tabs Artists:  A B C D E F G H I J K L M N O P Q R S T U V W X Y Z 0-9

Its Cold Tonight Guitar Tabs – Aiden

CD, Sheet music, Poster

Do you like Its Cold Tonight? Share with your friends now
Bass TabsBass Tabs v2Tabs
It's Cold Tonight
Aiden
Nightmare Anatomy



Words by wiL Francis
Music by Aiden
Arranged by Aiden
 

Gtr I (C# G# C# F# A# D#) - 'Rhythm I'
Gtr II (C# G# C# F# A# D#) - 'Rhythm II'
Gtr III (C# G# C# F# A# D#) - 'Lead Guitar'
Gtr IV (C# G# C# F# A# D#) - 'Acoustic'


 Intro
  Q=234
 4/4
  Gtr III
                 ~~                         ~~
     E  E  E  E  H       E   E  E  E  E  E  Q
|---------------------|------------------------|
|---------------------|------------------------|
|---------------------|-14p=12----12h14p12-----|
|---16p14-12h14-16----|--------16----------16--|
|---------------------|------------------------|
|---------------------|------------------------|
|
| Gtrs I, II
| a  W                  +W
|---------------------|------------------------|
|---------------------|------------------------|
|----4----------------|-(4)--------------------|
|-2--4----------------|-(4)--------------------|
|-2--2----------------|-(2)--------------------|
|---------------------|------------------------|


               ~~
   E  E  E  E  H       a  Q    Q   Q   Q
|-------------------|----------------------|
|-------------------|----------------------|
|-------------------|-11s14p==12-----------|
|-16p12-12h14-16----|-------------16p=14---|
|-------------------|----------------------|
|-------------------|----------------------|
|
|  W                     +W
|-------------------|----------------------|
|-------------------|----------------------|
|-------------------|----------------------|
|--5----------------|----(5)---------------|
|--5----------------|----(5)---------------|
|--5----------------|----(5)---------------|


               ~~                              ~~
   E  E  E  E  H       E   E  E  E  +S   S  E  Q
|-------------------|-----------------------------|
|-------------------|-----------------------------|
|-------------------|-14p=12----12-(12)h14-12-----|
|-16p14-12h14-16----|--------16---------------16--|
|-------------------|-----------------------------|
|-------------------|-----------------------------|
|
|  W                  +W
|-------------------|-----------------------------|
|-------------------|-----------------------------|
|-------------------|-----------------------------|
|--7----------------|-(7)-------------------------|
|--7----------------|-(7)-------------------------|
|--7----------------|-(7)-------------------------|


               ~~
   E  E  E  E  H       a  Q    Q   Q   Q
|-------------------|----------------------||
|-------------------|----------------------||
|-------------------|-11s14p==12-----------||
|-16p12-12h14-16----|-------------16p=14---||
|-------------------|----------------------||
|-------------------|----------------------||
|
|  W                     +H..            e
|-------------------|----------------------||
|-------------------|----------------------||
|-------------------|----------------------||
|--7----------------|----(7)-------------7-||
|--7----------------|----(7)-------------7-||
|--7----------------|----(7)-------------7-||


   Verse I
    Gtr III
        PM  PM        PM   PM   PM  PM
    E E E E E E E E   E  E E  E E E E E
||------------------|-------------------|
||o-----------------|-------------------|
||------------------|-------------------|
||------------------|-------------------|
||o-5-5---9---9p5-5-|---10---10---9---5-|
||------0---0-------|-0----0----0---0---|
|
|   Gtrs I, II
|                     PM----------|
|   Q   E q   E Q     E  E E  E E E E E
||------------------|-------------------|
||o-----------------|-------------------|
||--4---4-4---------|---------------4-4-|
||--4---4-4---4-4---|-x--x-x--x-x-x-4-4-|
||o-2---2-2---2-2---|-x--x-x--x-x-x-2-2-|
||------------------|-------------------|


      PM  PM         PM    PM   PM  PM
  E E E E E E E E    E   E E  E E E E E
|-----------------|----------------------|
|-----------------|----------------------|
|-----------------|----------------------|
|-----------------|----------------------|
|-5-5---9---9p5-5-|-----10---10---9---5--|
|-----7---7-------|--7-----7----7---7----|
|
|                          PM---|
| Q   Q   E E E E   +Q     Q    Q   E E
|-----------------|----------------------|
|-----------------|----------------------|
|-4---4---------4-|-(4)----x----x---4----|
|-4---4---4-4-4-4-|-(4)----x----x---4-5--|
|-2---2---2-2-2-2-|-(2)----x----x---2-5--|
|-----------------|-------------------5--|


        PM  PM        PM  PM  PM  PM        PM  PM
   E  E E E E E E E   E E E E E E E E   E E E E E E E E
|-------------------|-----------------|-----------------|
|-------------------|-----------------|-----------------|
|-------------------|-----------------|-----------------|
|-------------------|---5---5---------|-------4---4-----|
|--5--5---9---9p5-5-|-----------9---5-|-5-5---------5-5-|
|-------5---5-------|-5---5---5---5---|-----4---4-------|
|
|           PM        PM          PM|           PM----|
| +Q    Q   E Q.      Q   H       E E   Q   Q   E E E E
|-------------------|-----------------|-----------------|
|-------------------|-----------------|-----------------|
|-------------------|-----------------|-----------------|
|-(5)---5---x-------|-----------------|-5---5-----------|
|-(5)---5---x-5-----|-x-----------5-5-|-5---5---5-5-5-5-|
|-(5)---5---x-5-----|-x-----------5-5-|-5---5---5-5-5-5-|


  1.                  2.
  PM  PM  PM  PM      PM  PM
  E E E E E E E E     E E E E E E E   E
|------------------||----------------------||
|-----------------o||----------------------||
|------------------||----------------------||
|---5---5---4------||---5---5p4-5p4--------||
|---------------5-o||-----------------5----||
|-4---4---4---4----||-4---4----------------||
|
|                                 |--3--|
| Q   H       E E     Q   H       E E   E
|------------------||----------------------||
|-----------------o||----------------------||
|---------------4--||----------------------||
|-5-----------5S4--||-5-----------x-x---x--||
|-5-----------5S2-o||-5-----------x-x---x--||
|-5-----------5Sx--||-5-----------x-x---x--||


 Pre-Chorus
      PM    PM      PM                    PM    PM      PM
  E E E E E E E E   E E E E E E E E   E E E E E E E E   E E E E E E E E
|-----------------|-----------------|-----------------|-----------------|
|-----------------|-----------------|-----------------|-----------------|
|-----------------|-----------------|-----------------|-----------------|
|-----------------|---------7p5---5-|-----------------|---------7p5-----|
|-5h9---5h9---5h9-|---5h9p5-----9---|-5h9---5h9---5h9-|---5h9p5-----9p7-|
|-----0-----0-----|-0---------------|-----7-----7-----|-7---------------|
|
| Q   E E Q   E E   Q   E E Q   E E   Q   E E Q   E E   Q   E E Q   E E
|-----------------|-----------------|-----------------|-----------------|
|-----------------|-----------------|-----------------|-----------------|
|-----------------|-----------------|-----------------|-----------------|
|-0---0-0-0---0-0-|-0---0-0-0---0-0-|-2---2-2-2---2-2-|-2---2-2-2---2-2-|
|-0---0-0-0---0-0-|-0---0-0-0---0-0-|-2---2-2-2---2-2-|-2---2-2-2---2-2-|
|-0---0-0-0---0-0-|-0---0-0-0---0-0-|-2---2-2-2---2-2-|-2---2-2-2---2-2-|


      PM    PM      PM                      PM    PM      PM
  E E E E E E E E   E E E E E E E  E    E E E E E E E E   E E E E E E E E
|-----------------|-------------------|-----------------|-----------------||
|-----------------|-------------------|-----------------|-----------------||
|-----------------|-------------------|-----------------|-----------------||
|-----------------|---------7p5-------|-----------------|---------7p5-7h9-||
|-5h9---5h9---5h9-|---5h9p5-----9h10\-|-5h9---5h9---5h9-|---5h9p5---------||
|-----5-----5-----|-5-----------------|-----7-----7-----|-7---------------||
|
| Q   E E Q   E E   Q   E E Q   E  E    Q   E E Q   E E   Q   E E Q   E E
|-----------------|-------------------|-----------------|-----------------||
|-----------------|-------------------|-----------------|-----------------||
|-----------------|-------------------|-----------------|-----------------||
|-5---5-5-5---5-5-|-5---5-5-5---5--5--|-7---7-7-7---7-7-|-7---7-7-7---7-7-||
|-5---5-5-5---5-5-|-5---5-5-5---5--5--|-7---7-7-7---7-7-|-7---7-7-7---7-7-||
|-5---5-5-5---5-5-|-5---5-5-5---5--5--|-7---7-7-7---7-7-|-7---7-7-7---7-7-||


 Chorus
                           PM
   Q   Q   q  Q    H.      E E   +Q   E E E E E E    E  E  E  E  E  E  E  E
|----------------|-------------|------------------|--------------------------|
|----------------|-------------|------------------|--------------------------|
|-11--11--11-----|-----------7-|-(7)--7-7S9-9-9-9S|=11-11-11-11S12-12-12-12S=|
|----------------|-----------x-|-(x)--x-x-x-x-x-x-|--x--x--x--x--x--x--x--x--|
|----------------|-----------5-|-(5)--5-5S7-7-7-7S|==9--9--9--9S10-10-10-10S=|
|----------------|---------x---|------------------|--------------------------|
|
|  H       q  Q    H.      E E   +Q   E E E E E E    E  E  E  E  E  E  E  E
|----------------|-------------|------------------|--------------------------|
|----------------|-------------|------------------|--------------------------|
|----------------|-------------|------------------|--------------------------|
|--9-------9-----|---------7-7-|-(7)--7-7-7-7-7-7-|--7--7--7--7--7--7--7--7--|
|--9-------9-----|---------7-7-|-(7)--7-7-7-7-7-7-|--7--7--7--7--7--7--7--7--|
|--9-------9-----|---------7-7-|-(7)--7-7-7-7-7-7-|--7--7--7--7--7--7--7--7--|


  E E E E E E E E    E  E  E  E  E  E  E  E
|-----------------|-------------------------|
|-----------------|-------------------------|
|-7-7-7-7S9-9-9-9S|=11-11-11-11S12-12-12-12S|
|-x-x-x-x-x-x-x-x-|--x--x--x--x--x--x--x--x-|
|-5-5-5-5S7-7-7-7S|==9--9--9--9S10-10-10-10S|
|-----------------|-------------------------|
|
| E E E E E E E E    E  E  E  E  E  E  E  E
|-----------------|-------------------------|
|-----------------|-------------------------|
|-----------------|-------------------------|
|-5-5-5-5-5-5-5-5-|--5--5--5--5--5--5--5--5-|
|-5-5-5-5-5-5-5-5-|--5--5--5--5--5--5--5--5-|
|-5-5-5-5-5-5-5-5-|--5--5--5--5--5--5--5--5-|


   E  E  E  E  E  E  E  E    +W
|-------------------------|--------------------|
|-------------------------|--------------------|
|-14-14-14S12-12-12S11-11-|-(11)---------------|
|--x--x--x--x--x--x--x--x-|--(x)---------------|
|-12-12-12S10-10-10S=9--9-|--(9)---------------|
|-------------------------|--------------------|
|
|  E  E  E  E  E  E  E  E     E  E E E E E E E
|-------------------------|--------------------|
|-------------------------|--------------------|
|-------------------------|--------------------|
|--5--5--5--5--5--5--5--5-|---5--5-5-5-5-5-5-5-|
|--5--5--5--5--5--5--5--5-|---5--5-5-5-5-5-5-5-|
|--5--5--5--5--5--5--5--5-|---5--5-5-5-5-5-5-5-|


  E E E E E E E E    E  E  E  E  E  E  E  E
|-----------------|-------------------------|
|-----------------|-------------------------|
|-7-7-7-7S9-9-9-9S|=11-11-11-11S12-12-12-12S|
|-x-x-x-x-x-x-x-x-|--x--x--x--x--x--x--x--x-|
|-5-5-5-5S7-7-7-7S|==9--9--9--9S10-10-10-10S|
|-----------------|-------------------------|
|
| E E E E E E E E    E  E  E  E  E  E  E  E
|-----------------|-------------------------|
|-----------------|-------------------------|
|-4-4-4-4-4-4-4-4-|--4--4--4--4--4--4--4--4-|
|-4-4-4-4-4-4-4-4-|--4--4--4--4--4--4--4--4-|
|-2-2-2-2-2-2-2-2-|--2--2--2--2--2--2--2--2-|
|-----------------|-------------------------|


  E E E E E E E E    E  E  E  E  E  E  E  E
|-----------------|-------------------------|
|-----------------|-------------------------|
|-7-7-7-7S9-9-9-9S|=11-11-11-11S12-12-12-12-|
|-x-x-x-x-x-x-x-x-|--x--x--x--x--x--x--x--x-|
|-5-5-5-5S7-7-7-7S|==9--9--9--9S10-10-10-10-|
|-----------------|-------------------------|
|
| E E E E E E E E    Q     Q     Q     E  E
|-----------------|-------------------------|
|-----------------|-------------------------|
|-2-2-2-2-2-2-2-2-|--2-----2-----2-----2--2-|
|-2-2-2-2-2-2-2-2-|--2-----2-----2-----2--2-|
|-0-0-0-0-0-0-0-0-|--0-----0-----0-----0--0-|
|-----------------|-------------------------|


  E E E E E E E E    E  E  E  E  E  E  E  E   H    H      h      H
|-----------------|-------------------------|-----------|-------------||
|-----------------|-------------------------|-----------|-------------||
|-7-7-7-7S9-9-9-9S|=11-11-11-11S12-12-12-12S|=7----7----|-7-----------||
|-x-x-x-x-x-x-x-x-|--x--x--x--x--x--x--x--x-|-x----x----|-x-----------||
|-5-5-5-5S7-7-7-7S|==9--9--9--9S10-10-10-10S|=5----5----|-5-----------||
|-----------------|-------------------------|-----------|-------------||
|
| E E E E E E E E    E  E  E  E  E  E  E  E   W           Q  H.
|-----------------|-------------------------|-----------|-------------||
|-----------------|-------------------------|-----------|-------------||
|-4-4-4-4-4-4-4-4-|--4--4--4--4--4--4--4--4-|-----------|-------------||
|-5-5-5-5-5-5-5-5-|--5--5--5--5--5--5--5--5-|-0---------|-0-----------||
|-5-5-5-5-5-5-5-5-|--5--5--5--5--5--5--5--5-|-0---------|-0-----------||
|-5-5-5-5-5-5-5-5-|--5--5--5--5--5--5--5--5-|-0---------|-0-----------||


 Re-Intro
 4/4
                ~~                         ~~
    E  E  E  E  H       E   E  E  E  E  E  Q
|--------------------|------------------------|
|--------------------|------------------------|
|--------------------|-14p=12----12h14p12-----|
|-/16p14-12h14-16----|--------16----------16--|
|--------------------|------------------------|
|--------------------|------------------------|
|
|   W                  +W
|--------------------|------------------------|
|--------------------|------------------------|
|---4----------------|-(4)--------------------|
|---4----------------|-(4)--------------------|
|---2----------------|-(2)--------------------|
|--------------------|------------------------|


               ~~
   E  E  E  E  H       a  Q    Q   Q   Q
|-------------------|---------------------|
|-------------------|---------------------|
|-------------------|-11s14p==12----------|
|-16p12-12h14-16----|-------------16p=14--|
|-------------------|---------------------|
|-------------------|---------------------|
|
|  W                     +W
|-------------------|---------------------|
|-------------------|---------------------|
|-------------------|---------------------|
|--5----------------|----(5)--------------|
|--5----------------|----(5)--------------|
|--5----------------|----(5)--------------|


               ~~                              ~~
   E  E  E  E  H       E   E  E  E  +S   S  E  Q
|-------------------|-----------------------------|
|-------------------|-----------------------------|
|-------------------|-14p=12----12-(12)h14-12-----|
|-16p14-12h14-16----|--------16---------------16--|
|-------------------|-----------------------------|
|-------------------|-----------------------------|
|
|  W                  +W
|-------------------|-----------------------------|
|-------------------|-----------------------------|
|-------------------|-----------------------------|
|--7----------------|-(7)-------------------------|
|--7----------------|-(7)-------------------------|
|--7----------------|-(7)-------------------------|


               ~~
   E  E  E  E  H       a  Q    Q   Q   Q
|-------------------|----------------------||
|-------------------|----------------------||
|-------------------|-11s14p==12-----------||
|-16p12-12h14-16----|-------------16p=14---||
|-------------------|----------------------||
|-------------------|----------------------||
|
|  W                     +H..            e
|-------------------|----------------------||
|-------------------|----------------------||
|-------------------|----------------------||
|--7----------------|----(7)-------------7-||
|--7----------------|----(7)-------------7-||
|--7----------------|----(7)-------------7-||


   Verse II
    Gtr III
        PM  PM        PM   PM   PM  PM
    E E E E E E E E   E  E E  E E E E E
||------------------|-------------------|
||o-----------------|-------------------|
||------------------|-------------------|
||------------------|-------------------|
||o-5-5---9---9p5-5-|---10---10---9---5-|
||------0---0-------|-0----0----0---0---|
|
|   Gtrs I, II
|                     PM----------|
|   Q   E q   E Q     E  E E  E E E E E
||------------------|-------------------|
||o-----------------|-------------------|
||--4---4-4---------|---------------4-4-|
||--4---4-4---4-4---|-x--x-x--x-x-x-4-4-|
||o-2---2-2---2-2---|-x--x-x--x-x-x-2-2-|
||------------------|-------------------|


      PM  PM         PM    PM   PM  PM
  E E E E E E E E    E   E E  E E E E E
|-----------------|----------------------|
|-----------------|----------------------|
|-----------------|----------------------|
|-----------------|----------------------|
|-5-5---9---9p5-5-|-----10---10---9---5--|
|-----7---7-------|--7-----7----7---7----|
|
|                          PM---|
| Q   Q   E E E E   +Q     Q    Q   E E
|-----------------|----------------------|
|-----------------|----------------------|
|-4---4---------4-|-(4)----x----x---4----|
|-4---4---4-4-4-4-|-(4)----x----x---4-5--|
|-2---2---2-2-2-2-|-(2)----x----x---2-5--|
|-----------------|-------------------5--|


      PM  PM        PM  PM  PM  PM        PM  PM
  E E E E E E E E   E E E E E E E E   E E E E E E E E
|-----------------|-----------------|-----------------|
|-----------------|-----------------|-----------------|
|-----------------|-----------------|-----------------|
|-----------------|---5---5---------|-------4---4-----|
|-5-5---9---9p5-5-|-----------9---5-|-5-5---------5-5-|
|-----5---5-------|-5---5---5---5---|-----4---4-------|
|
|         PM        PM          PM|           PM----|
| Q   Q   E Q.      Q   H       E E   Q   Q   E E E E
|-----------------|-----------------|-----------------|
|-----------------|-----------------|-----------------|
|-----------------|-----------------|-----------------|
|-5---5---x-------|-----------------|-5---5-----------|
|-5---5---x-5-----|-x-----------5-5-|-5---5---5-5-5-5-|
|-5---5---x-5-----|-x-----------5-5-|-5---5---5-5-5-5-|


  1.                  2.
  PM  PM  PM  PM      PM  PM
  E E E E E E E E     E E E E E E E   E
|------------------||----------------------||
|-----------------o||----------------------||
|------------------||----------------------||
|---5---5---4------||---5---5p4-5p4--------||
|---------------5-o||-----------------5----||
|-4---4---4---4----||-4---4----------------||
|
|                                 |--3--|
| Q   H       E E     Q   H       E E   E
|------------------||----------------------||
|-----------------o||----------------------||
|---------------4--||----------------------||
|-5-----------5S4--||-5-----------x-x---x--||
|-5-----------5S2-o||-5-----------x-x---x--||
|-5-----------5Sx--||-5-----------x-x---x--||


 Pre-Chorus
      PM    PM      PM                    PM    PM      PM
  E E E E E E E E   E E E E E E E E   E E E E E E E E   E E E E E E E E
|-----------------|-----------------|-----------------|-----------------|
|-----------------|-----------------|-----------------|-----------------|
|-----------------|-----------------|-----------------|-----------------|
|-----------------|---------7p5---5-|-----------------|---------7p5-----|
|-5h9---5h9---5h9-|---5h9p5-----9---|-5h9---5h9---5h9-|---5h9p5-----9p7-|
|-----0-----0-----|-0---------------|-----7-----7-----|-7---------------|
|
| Q   E E Q   E E   Q   E E Q   E E   Q   E E Q   E E   Q   E E Q   E E
|-----------------|-----------------|-----------------|-----------------|
|-----------------|-----------------|-----------------|-----------------|
|-----------------|-----------------|-----------------|-----------------|
|-0---0-0-0---0-0-|-0---0-0-0---0-0-|-2---2-2-2---2-2-|-2---2-2-2---2-2-|
|-0---0-0-0---0-0-|-0---0-0-0---0-0-|-2---2-2-2---2-2-|-2---2-2-2---2-2-|
|-0---0-0-0---0-0-|-0---0-0-0---0-0-|-2---2-2-2---2-2-|-2---2-2-2---2-2-|


      PM    PM      PM                      PM    PM      PM
  E E E E E E E E   E E E E E E E  E    E E E E E E E E   E E E E E E E E
|-----------------|-------------------|-----------------|-----------------||
|-----------------|-------------------|-----------------|-----------------||
|-----------------|-------------------|-----------------|-----------------||
|-----------------|---------7p5-------|-----------------|---------7p5-7h9-||
|-5h9---5h9---5h9-|---5h9p5-----9h10\-|-5h9---5h9---5h9-|---5h9p5---------||
|-----5-----5-----|-5-----------------|-----7-----7-----|-7---------------||
|
| Q   E E Q   E E   Q   E E Q   E  E    Q   E E Q   E E   Q   E E Q   E E
|-----------------|-------------------|-----------------|-----------------||
|-----------------|-------------------|-----------------|-----------------||
|-----------------|-------------------|-----------------|-----------------||
|-5---5-5-5---5-5-|-5---5-5-5---5--5--|-7---7-7-7---7-7-|-7---7-7-7---7-7-||
|-5---5-5-5---5-5-|-5---5-5-5---5--5--|-7---7-7-7---7-7-|-7---7-7-7---7-7-||
|-5---5-5-5---5-5-|-5---5-5-5---5--5--|-7---7-7-7---7-7-|-7---7-7-7---7-7-||


 Chorus
                           PM
   Q   Q   q  Q    H.      E E   +Q   E E E E E E    E  E  E  E  E  E  E  E
|----------------|-------------|------------------|-------------------------|
|----------------|-------------|------------------|-------------------------|
|-11--11--11-----|-----------7-|-(7)--7-7S9-9-9-9S|=11-11-11-11S12-12-12-12-|
|----------------|-----------x-|-(x)--x-x-x-x-x-x-|--x--x--x--x--x--x--x--x-|
|----------------|-----------5-|-(5)--5-5S7-7-7-7S|==9--9--9--9S10-10-10-10-|
|----------------|---------x---|------------------|-------------------------|
|
|  H       q  Q    H.      E E   +Q   E E E E E E    E  E  E  E  E  E  E  E
|----------------|-------------|------------------|-------------------------|
|----------------|-------------|------------------|-------------------------|
|----------------|-------------|------------------|-------------------------|
|--9-------9-----|---------7-7-|-(7)--7-7-7-7-7-7-|--7--7--7--7--7--7--7--7-|
|--9-------9-----|---------7-7-|-(7)--7-7-7-7-7-7-|--7--7--7--7--7--7--7--7-|
|--9-------9-----|---------7-7-|-(7)--7-7-7-7-7-7-|--7--7--7--7--7--7--7--7-|


  E E E E E E E E    E  E  E  E  E  E  E  E
|-----------------|-------------------------|
|-----------------|-------------------------|
|-7-7-7-7S9-9-9-9S|=11-11-11-11S12-12-12-12S|
|-x-x-x-x-x-x-x-x-|--x--x--x--x--x--x--x--x-|
|-5-5-5-5S7-7-7-7S|==9--9--9--9S10-10-10-10S|
|-----------------|-------------------------|
|
| E E E E E E E E    E  E  E  E  E  E  E  E
|-----------------|-------------------------|
|-----------------|-------------------------|
|-----------------|-------------------------|
|-5-5-5-5-5-5-5-5-|--5--5--5--5--5--5--5--5-|
|-5-5-5-5-5-5-5-5-|--5--5--5--5--5--5--5--5-|
|-5-5-5-5-5-5-5-5-|--5--5--5--5--5--5--5--5-|


   E  E  E  E  E  E  E  E    +W
|-------------------------|--------------------|
|-------------------------|--------------------|
|-14-14-14S12-12-12S11-11-|-(11)---------------|
|--x--x--x--x--x--x--x--x-|--(x)---------------|
|-12-12-12S10-10-10S=9--9-|--(9)---------------|
|-------------------------|--------------------|
|
|  E  E  E  E  E  E  E  E     E  E E E E E E E
|-------------------------|--------------------|
|-------------------------|--------------------|
|-------------------------|--------------------|
|--5--5--5--5--5--5--5--5-|---5--5-5-5-5-5-5-5-|
|--5--5--5--5--5--5--5--5-|---5--5-5-5-5-5-5-5-|
|--5--5--5--5--5--5--5--5-|---5--5-5-5-5-5-5-5-|


  E E E E E E E E    E  E  E  E  E  E  E  E
|-----------------|-------------------------|
|-----------------|-------------------------|
|-7-7-7-7S9-9-9-9S|=11-11-11-11S12-12-12-12S|
|-x-x-x-x-x-x-x-x-|--x--x--x--x--x--x--x--x-|
|-5-5-5-5S7-7-7-7S|==9--9--9--9S10-10-10-10S|
|-----------------|-------------------------|
|
| E E E E E E E E    E  E  E  E  E  E  E  E
|-----------------|-------------------------|
|-----------------|-------------------------|
|-4-4-4-4-4-4-4-4-|--4--4--4--4--4--4--4--4-|
|-4-4-4-4-4-4-4-4-|--4--4--4--4--4--4--4--4-|
|-2-2-2-2-2-2-2-2-|--2--2--2--2--2--2--2--2-|
|-----------------|-------------------------|


  E E E E E E E E    E  E  E  E  E  E  E  E
|-----------------|-------------------------|
|-----------------|-------------------------|
|-7-7-7-7S9-9-9-9S|=11-11-11-11S12-12-12-12-|
|-x-x-x-x-x-x-x-x-|--x--x--x--x--x--x--x--x-|
|-5-5-5-5S7-7-7-7S|==9--9--9--9S10-10-10-10-|
|-----------------|-------------------------|
|
| E E E E E E E E    Q     Q     Q     E  E
|-----------------|-------------------------|
|-----------------|-------------------------|
|-2-2-2-2-2-2-2-2-|--2-----2-----2-----2--2-|
|-2-2-2-2-2-2-2-2-|--2-----2-----2-----2--2-|
|-0-0-0-0-0-0-0-0-|--0-----0-----0-----0--0-|
|-----------------|-------------------------|


  E E E E E E E E    E  E  E  E  E  E  E  E
|-----------------|-------------------------|
|-----------------|-------------------------|
|-7-7-7-7S9-9-9-9S|=11-11-11-11S12-12-12-12S|
|-x-x-x-x-x-x-x-x-|--x--x--x--x--x--x--x--x-|
|-5-5-5-5S7-7-7-7S|==9--9--9--9S10-10-10-10S|
|-----------------|-------------------------|
|
| E E E E E E E E    E  E  E  E  E  E  E  E
|-----------------|-------------------------|
|-----------------|-------------------------|
|-4-4-4-4-4-4-4-4-|--4--4--4--4--4--4--4--4-|
|-5-5-5-5-5-5-5-5-|--5--5--5--5--5--5--5--5-|
|-5-5-5-5-5-5-5-5-|--5--5--5--5--5--5--5--5-|
|-5-5-5-5-5-5-5-5-|--5--5--5--5--5--5--5--5-|


   E  E  E E E E E E   +E  +E  E +E  E +E  E +E
|--------------------|----------------------------|
|--------------------|----------------------------|
|-11-11-11S9-9-9S7-7-|-(7)-(7)s9-(9)s7-(7)s6-(6)S=|
|--x--x--x-x-x-x-x-x-|----------------------------|
|--9--9--9S7-7-7S5-5-|-(5)-(5)s7-(7)s5-(5)s4-(4)S=|
|--------------------|----------------------------|
|
|  E  E  E E E E E E    E   E  E  E  E  E  E  E
|--------------------|----------------------------|
|--------------------|----------------------------|
|--------------------|----------------------------|
|--------------------|---------------0--0--0--0---|
|--0--0--0-0-0-0-0-0-|--0---0--0--0--0--0--0--0---|
|--0--0--0-0-0-0-0-0-|--0---0--0--0--0--0--0--0---|


  E E E E E E E E    E  E  E  E  E  E  E  E
|-----------------|-------------------------|
|-----------------|-------------------------|
|-7-7-7-7S9-9-9-9S|=11-11-11-11S12-12-12-12S|
|-x-x-x-x-x-x-x-x-|--x--x--x--x--x--x--x--x-|
|-5-5-5-5S7-7-7-7S|==9--9--9--9S10-10-10-10S|
|-----------------|-------------------------|
|
| E E E E E E E E    E  E  E  E  E  E  E  E
|-----------------|-------------------------|
|-----------------|-------------------------|
|-4-4-4-4-4-4-4-4-|--4--4--4--4--4--4--4--4-|
|-4-4-4-4-4-4-4-4-|--4--4--4--4--4--4--4--4-|
|-2-2-2-2-2-2-2-2-|--2--2--2--2--2--2--2--2-|
|-----------------|-------------------------|


  E E E E E E E E    E  E  E  E  E  E  E  E
|-----------------|-------------------------|
|-----------------|-------------------------|
|-7-7-7-7S9-9-9-9S|=11-11-11-11S12-12-12-12-|
|-x-x-x-x-x-x-x-x-|--x--x--x--x--x--x--x--x-|
|-5-5-5-5S7-7-7-7S|==9--9--9--9S10-10-10-10-|
|-----------------|-------------------------|
|
| E E E E E E E E    Q     Q     Q     E  E
|-----------------|-------------------------|
|-----------------|-------------------------|
|-2-2-2-2-2-2-2-2-|--2-----2-----2-----2--2-|
|-2-2-2-2-2-2-2-2-|--2-----2-----2-----2--2-|
|-0-0-0-0-0-0-0-0-|--0-----0-----0-----0--0-|
|-----------------|-------------------------|


  E E E E E E E E    E  E  E  E  E  E  E  E
|-----------------|-------------------------|
|-----------------|-------------------------|
|-7-7-7-7S9-9-9-9S|=11-11-11-11S12-12-12-12S|
|-x-x-x-x-x-x-x-x-|--x--x--x--x--x--x--x--x-|
|-5-5-5-5S7-7-7-7S|==9--9--9--9S10-10-10-10S|
|-----------------|-------------------------|
|
| E E E E E E E E    E  E  E  E  E  E  E  E
|-----------------|-------------------------|
|-----------------|-------------------------|
|-----------------|-------------------------|
|-5-5-5-5-5-5-5-5-|--5--5--5--5--5--5--5--5-|
|-5-5-5-5-5-5-5-5-|--5--5--5--5--5--5--5--5-|
|-5-5-5-5-5-5-5-5-|--5--5--5--5--5--5--5--5-|


   E  E  E  E  E  E  E  E    +W
|-------------------------|--------------------|
|-------------------------|--------------------|
|-14-14-14S12-12-12S11-11-|-(11)---------------|
|--x--x--x--x--x--x--x--x-|--(x)---------------|
|-12-12-12S10-10-10S=9--9-|--(9)---------------|
|-------------------------|--------------------|
|
|  E  E  E  E  E  E  E  E     E  E E E E E E E
|-------------------------|--------------------|
|-------------------------|--------------------|
|-------------------------|--------------------|
|--5--5--5--5--5--5--5--5-|---5--5-5-5-5-5-5-5-|
|--5--5--5--5--5--5--5--5-|---5--5-5-5-5-5-5-5-|
|--5--5--5--5--5--5--5--5-|---5--5-5-5-5-5-5-5-|


  E E E E E E E E    E  E  E  E  E  E  E  E
|-----------------|-------------------------|
|-----------------|-------------------------|
|-7-7-7-7S9-9-9-9S|=11-11-11-11S12-12-12-12S|
|-x-x-x-x-x-x-x-x-|--x--x--x--x--x--x--x--x-|
|-5-5-5-5S7-7-7-7S|==9--9--9--9S10-10-10-10S|
|-----------------|-------------------------|
|
| E E E E E E E E    E  E  E  E  E  E  E  E
|-----------------|-------------------------|
|-----------------|-------------------------|
|-4-4-4-4-4-4-4-4-|--4--4--4--4--4--4--4--4-|
|-4-4-4-4-4-4-4-4-|--4--4--4--4--4--4--4--4-|
|-2-2-2-2-2-2-2-2-|--2--2--2--2--2--2--2--2-|
|-----------------|-------------------------|


  E E E E E E E E    E  E  E  E  E  E  E  E
|-----------------|-------------------------|
|-----------------|-------------------------|
|-7-7-7-7S9-9-9-9S|=11-11-11-11S12-12-12-12-|
|-x-x-x-x-x-x-x-x-|--x--x--x--x--x--x--x--x-|
|-5-5-5-5S7-7-7-7S|==9--9--9--9S10-10-10-10-|
|-----------------|-------------------------|
|
| E E E E E E E E    Q     Q     Q     E  E
|-----------------|-------------------------|
|-----------------|-------------------------|
|-2-2-2-2-2-2-2-2-|--2-----2-----2-----2--2-|
|-2-2-2-2-2-2-2-2-|--2-----2-----2-----2--2-|
|-0-0-0-0-0-0-0-0-|--0-----0-----0-----0--0-|
|-----------------|-------------------------|


  E E E E E E E E    E  E  E  E  E  E  E  E   H    H      h      H
|-----------------|-------------------------|-----------|-------------||
|-----------------|-------------------------|-----------|-------------||
|-7-7-7-7S9-9-9-9S|=11-11-11-11S12-12-12-12S|=7----7----|-7-----------||
|-x-x-x-x-x-x-x-x-|--x--x--x--x--x--x--x--x-|-x----x----|-x-----------||
|-5-5-5-5S7-7-7-7S|==9--9--9--9S10-10-10-10S|=5----5----|-5-----------||
|-----------------|-------------------------|-----------|-------------||
|
| E E E E E E E E    E  E  E  E  E  E  E  E   W           Q  H.
|-----------------|-------------------------|-----------|-------------||
|-----------------|-------------------------|-----------|-------------||
|-4-4-4-4-4-4-4-4-|--4--4--4--4--4--4--4--4-|-----------|-------------||
|-5-5-5-5-5-5-5-5-|--5--5--5--5--5--5--5--5-|-0---------|-0-----------||
|-5-5-5-5-5-5-5-5-|--5--5--5--5--5--5--5--5-|-0---------|-0-----------||
|-5-5-5-5-5-5-5-5-|--5--5--5--5--5--5--5--5-|-0---------|-0-----------||


   Bridge
    Q=155
    Gtrs I, II
     PM-------------------------------------------------
     E  E  E  E  E  E  E  E     E  E  E  E  E  E  E  E
||--------------------------|--------------------------|
||o-------------------------|--------------------------|
||--12-12-12-12-12-12-12-12-|--14-14-14-14-14-14-14-14-|
||--12-12-12-12-12-12-12-12-|--16-16-16-16-16-16-16-16-|
||o-10-10-10-10-10-10-10-10-|--14-14-14-14-14-14-14-14-|
||--------------------------|--------------------------|
|
|   Gtr III
|    ~~~~~~~~~~~~~~             PM---|         PM-------
|    H           H              E  E  E  E  E  E  E  E
||--------------------------|--------------------------|
||o-------------------------|--------------------------|
||--------------------------|--------------------------|
||--------------------------|-----------12p11----------|
||o-10----------10----------|-/12-12-12-------12-12-12-|
||--------------------------|--------------------------|
|
|   Gtr IV
|    H           H              E  E  E  E  E  E  E  E
||--^3-----------3----------|---3--3--3--3--3--3--3--3-|
||o-^3-----------3----------|---3--3--3--3--3--3--3--3-|
||--^0-----------0----------|---0--0--0--0--0--0--0--0-|
||--^0-----------0----------|---0--0--0--0--0--0--0--0-|
||o-^3-----------3----------|--------------------------|
||--------------------------|--------------------------|


 ------------------------------------------------|
   E  E  E  E  E  E  E  E    E  E  E  E  E  E  E  E   3x
|-------------------------|---------------------------||
|-------------------------|--------------------------o||
|-------------------------|---------------------------||
|-16-16-16-16-16-16-16-16-|-16-16-16-16-16-16-16-16---||
|-14-14-14-14-14-14-14-14-|-14-14-14-14-14-14-14-14--o||
|-------------------------|---------------------------||
|
|-------|                       PM    PM    PM
|  E  E  E  E  E  E  E  E    E  E  E  E  E  E  E  E   3x
|-------------------------|---------------------------||
|-------------------------|--------------------------o||
|-------------------------|---------------------------||
|----------12p11-11-11-11-|-14----12----11----12------||
|-12-12-12----------------|----------------------12--o||
|-------------------------|-----0-----0-----0---------||
|
|  H           H             E  E  E  E  E  E  E  E   3x
|-^3-----------3----------|--3--3--3--3--3--3--3--3---||
|-^0-----------0----------|--0--0--0--0--0--0--0--0--o||
|-^0-----------0----------|--0--0--0--0--0--0--0--0---||
|-^0-----------0----------|--0--0--0--0--0--0--0--0---||
|-------------------------|--------------------------o||
|-------------------------|---------------------------||


   PM-------------------------------------------------
   E  E  E  E  E  E  E  E     E  E  E  E  E  E  E  E
|-------------------------|--------------------------|
|-------------------------|--------------------------|
|-12-12-12-12-12-12-12-12-|--14-14-14-14-14-14-14-14-|
|-12-12-12-12-12-12-12-12-|--16-16-16-16-16-16-16-16-|
|-10-10-10-10-10-10-10-10-|--14-14-14-14-14-14-14-14-|
|-------------------------|--------------------------|
|
|  ~~~~~~~~~~~~~~             PM---|         PM-------
|  H           H              E  E  E  E  E  E  E  E
|-------------------------|--------------------------|
|-------------------------|--------------------------|
|-------------------------|--------------------------|
|-------------------------|-----------12p11----------|
|-10----------10----------|-/12-12-12-------12-12-12-|
|-------------------------|--------------------------|
|
|  ~~
|  W                          E  E  E  E  E  E  E  E
|-------------------------|---3-----3-----3h=5p=3----|
|-/3----------------------|------5-----3-----------0-|
|-------------------------|--------------------------|
|-------------------------|--------------------------|
|-------------------------|--------------------------|
|-------------------------|--------------------------|


 ------------------------------------------------|
   E  E  E  E  E  E  E  E    E  E  E  E  E  E  E  E
|-------------------------|-------------------------||
|-------------------------|-------------------------||
|-------------------------|-------------------------||
|-16-16-16-16-16-16-16-16-|-16-16-16-16-16-16-16-16-||
|-14-14-14-14-14-14-14-14-|-14-14-14-14-14-14-14-14-||
|-------------------------|-------------------------||
|
|-------|                       PM    PM    PM
|  E  E  E  E  E  E  E  E    E  E  E  E  E  E  E  E
|-------------------------|-------------------------||
|-------------------------|-------------------------||
|-------------------------|-------------------------||
|----------12p11-11-11-11-|-14----12----11----12----||
|-12-12-12----------------|----------------------12-||
|-------------------------|-----0-----0-----0-------||
|
|                            ~~
|  E  E  E  E  E  E  E  E    W
|--3-----------3h=5p=3----|--3----------------------||
|-----0-----0-----------3-|-------------------------||
|--------0----------------|-------------------------||
|-------------------------|-------------------------||
|-------------------------|-------------------------||
|-------------------------|-------------------------||


 Pre-Chorus
  Q=234
  Gtr III
   ~~~                        ~~~~~~~~~~~~~~~~
   H        E   E   E   E     W
|--------------(7)h(8)p(7)-|-----------------|
|-(8)------(8)-------------|-(8)-------------|
|--------------------------|-----------------|
|--------------------------|-----------------|
|--------------------------|-----------------|
|--------------------------|-----------------|
|
| Gtrs I, II
|  Q   E E  Q       E   E     Q   E E Q  E E
|--------------------------|-----------------|
|--------------------------|-----------------|
|--------------------------|-----------------|
|--5---5-5--5-------5---5--|--5---5-5-5--5-5-|
|--5---5-5--5-------5---5--|--5---5-5-5--5-5-|
|--5---5-5--5-------5---5--|--5---5-5-5--5-5-|


 ~~~~~~                           ~~~~
    H         E   E    E   E      W
|----------------(8)h(10)p(8)-|------------------||
|-(10)------(10)--------------|-(10)-------------||
|-----------------------------|------------------||
|-----------------------------|------------------||
|-----------------------------|------------------||
|-----------------------------|------------------||
|
|   Q   E E   Q        E   E      Q   E E Q  E E
|-----------------------------|------------------||
|-----------------------------|------------------||
|-----------------------------|------------------||
|---7---7-7---7--------7---7--|---7---7-7-7--7-7-||
|---7---7-7---7--------7---7--|---7---7-7-7--7-7-||
|---7---7-7---7--------7---7--|---7---7-7-7--7-7-||


 Chorus
                       PM
  W            H.      E E   +Q   E E E E E E    E  E  E  E  E  E  E  E
|------------|-------------|------------------|-------------------------|
|------------|-------------|------------------|-------------------------|
|------------|-----------7-|-(7)--7-7S9-9-9-9S|=11-11-11-11S12-12-12-12-|
|------------|-----------x-|-(x)--x-x-x-x-x-x-|--x--x--x--x--x--x--x--x-|
|------------|-----------5-|-(5)--5-5S7-7-7-7S|==9--9--9--9S10-10-10-10-|
|------------|---------x---|------------------|-------------------------|
|
| H    q  Q    H.      E E   +Q   E E E E E E    E  E  E  E  E  E  E  E
|------------|-------------|------------------|-------------------------|
|------------|-------------|------------------|-------------------------|
|------------|-------------|------------------|-------------------------|
|-9----9-----|---------7-7-|-(7)--7-7-7-7-7-7-|--7--7--7--7--7--7--7--7-|
|-9----9-----|---------7-7-|-(7)--7-7-7-7-7-7-|--7--7--7--7--7--7--7--7-|
|-9----9-----|---------7-7-|-(7)--7-7-7-7-7-7-|--7--7--7--7--7--7--7--7-|


  E E E E E E E E    E  E  E  E  E  E  E  E
|-----------------|-------------------------|
|-----------------|-------------------------|
|-7-7-7-7S9-9-9-9S|=11-11-11-11S12-12-12-12S|
|-x-x-x-x-x-x-x-x-|--x--x--x--x--x--x--x--x-|
|-5-5-5-5S7-7-7-7S|==9--9--9--9S10-10-10-10S|
|-----------------|-------------------------|
|
| E E E E E E E E    E  E  E  E  E  E  E  E
|-----------------|-------------------------|
|-----------------|-------------------------|
|-----------------|-------------------------|
|-5-5-5-5-5-5-5-5-|--5--5--5--5--5--5--5--5-|
|-5-5-5-5-5-5-5-5-|--5--5--5--5--5--5--5--5-|
|-5-5-5-5-5-5-5-5-|--5--5--5--5--5--5--5--5-|


   E  E  E  E  E  E  E  E    +W
|-------------------------|--------------------|
|-------------------------|--------------------|
|-14-14-14S12-12-12S11-11-|-(11)---------------|
|--x--x--x--x--x--x--x--x-|--(x)---------------|
|-12-12-12S10-10-10S=9--9-|--(9)---------------|
|-------------------------|--------------------|
|
|  E  E  E  E  E  E  E  E     E  E E E E E E E
|-------------------------|--------------------|
|-------------------------|--------------------|
|-------------------------|--------------------|
|--5--5--5--5--5--5--5--5-|---5--5-5-5-5-5-5-5-|
|--5--5--5--5--5--5--5--5-|---5--5-5-5-5-5-5-5-|
|--5--5--5--5--5--5--5--5-|---5--5-5-5-5-5-5-5-|


  E E E E E E E E    E  E  E  E  E  E  E  E
|-----------------|-------------------------|
|-----------------|-------------------------|
|-7-7-7-7S9-9-9-9S|=11-11-11-11S12-12-12-12S|
|-x-x-x-x-x-x-x-x-|--x--x--x--x--x--x--x--x-|
|-5-5-5-5S7-7-7-7S|==9--9--9--9S10-10-10-10S|
|-----------------|-------------------------|
|
| E E E E E E E E    E  E  E  E  E  E  E  E
|-----------------|-------------------------|
|-----------------|-------------------------|
|-4-4-4-4-4-4-4-4-|--4--4--4--4--4--4--4--4-|
|-4-4-4-4-4-4-4-4-|--4--4--4--4--4--4--4--4-|
|-2-2-2-2-2-2-2-2-|--2--2--2--2--2--2--2--2-|
|-----------------|-------------------------|


  E E E E E E E E    E  E  E  E  E  E  E  E
|-----------------|-------------------------|
|-----------------|-------------------------|
|-7-7-7-7S9-9-9-9S|=11-11-11-11S12-12-12-12-|
|-x-x-x-x-x-x-x-x-|--x--x--x--x--x--x--x--x-|
|-5-5-5-5S7-7-7-7S|==9--9--9--9S10-10-10-10-|
|-----------------|-------------------------|
|
| E E E E E E E E    Q     Q     Q     E  E
|-----------------|-------------------------|
|-----------------|-------------------------|
|-2-2-2-2-2-2-2-2-|--2-----2-----2-----2--2-|
|-2-2-2-2-2-2-2-2-|--2-----2-----2-----2--2-|
|-0-0-0-0-0-0-0-0-|--0-----0-----0-----0--0-|
|-----------------|-------------------------|


  E E E E E E E E    E  E  E  E  E  E  E  E
|-----------------|-------------------------|
|-----------------|-------------------------|
|-7-7-7-7S9-9-9-9S|=11-11-11-11S12-12-12-12S|
|-x-x-x-x-x-x-x-x-|--x--x--x--x--x--x--x--x-|
|-5-5-5-5S7-7-7-7S|==9--9--9--9S10-10-10-10S|
|-----------------|-------------------------|
|
| E E E E E E E E    E  E  E  E  E  E  E  E
|-----------------|-------------------------|
|-----------------|-------------------------|
|-4-4-4-4-4-4-4-4-|--4--4--4--4--4--4--4--4-|
|-5-5-5-5-5-5-5-5-|--5--5--5--5--5--5--5--5-|
|-5-5-5-5-5-5-5-5-|--5--5--5--5--5--5--5--5-|
|-5-5-5-5-5-5-5-5-|--5--5--5--5--5--5--5--5-|


   E  E  E E E E E E   +E  +E  E +E  E +E  E +E
|--------------------|---------------------------|
|--------------------|---------------------------|
|-11-11-11S9-9-9S7-7-|-(7)-(7)s9-(9)s7-(7)s6-(6)-|
|--x--x--x-x-x-x-x-x-|---------------------------|
|--9--9--9S7-7-7S5-5-|-(5)-(5)s7-(7)s5-(5)s4-(4)-|
|--------------------|---------------------------|
|
|  E  E  E E E E E E    E   E  E  E  E  E  E  E
|--------------------|---------------------------|
|--------------------|---------------------------|
|--------------------|---------------------------|
|--------------------|---------------0--0--0--0--|
|--0--0--0-0-0-0-0-0-|--0---0--0--0--0--0--0--0--|
|--0--0--0-0-0-0-0-0-|--0---0--0--0--0--0--0--0--|


  E E E E E E E E    E  E  E  E  E  E  E  E
|-----------------|-------------------------|
|-----------------|-------------------------|
|-7-7-7-7S9-9-9-9S|=11-11-11-11S12-12-12-12S|
|-x-x-x-x-x-x-x-x-|--x--x--x--x--x--x--x--x-|
|-5-5-5-5S7-7-7-7S|==9--9--9--9S10-10-10-10S|
|-----------------|-------------------------|
|
| E E E E E E E E    E  E  E  E  E  E  E  E
|-----------------|-------------------------|
|-----------------|-------------------------|
|-4-4-4-4-4-4-4-4-|--4--4--4--4--4--4--4--4-|
|-4-4-4-4-4-4-4-4-|--4--4--4--4--4--4--4--4-|
|-2-2-2-2-2-2-2-2-|--2--2--2--2--2--2--2--2-|
|-----------------|-------------------------|


  E E E E E E E E    E  E  E  E  E  E  E  E
|-----------------|-------------------------|
|-----------------|-------------------------|
|-7-7-7-7S9-9-9-9S|=11-11-11-11S12-12-12-12-|
|-x-x-x-x-x-x-x-x-|--x--x--x--x--x--x--x--x-|
|-5-5-5-5S7-7-7-7S|==9--9--9--9S10-10-10-10-|
|-----------------|-------------------------|
|
| E E E E E E E E    Q     Q     Q     E  E
|-----------------|-------------------------|
|-----------------|-------------------------|
|-2-2-2-2-2-2-2-2-|--2-----2-----2-----2--2-|
|-2-2-2-2-2-2-2-2-|--2-----2-----2-----2--2-|
|-0-0-0-0-0-0-0-0-|--0-----0-----0-----0--0-|
|-----------------|-------------------------|


  E E E E E E E E    E  E  E  E  E  E  E  E
|-----------------|-------------------------|
|-----------------|-------------------------|
|-7-7-7-7S9-9-9-9S|=11-11-11-11S12-12-12-12S|
|-x-x-x-x-x-x-x-x-|--x--x--x--x--x--x--x--x-|
|-5-5-5-5S7-7-7-7S|==9--9--9--9S10-10-10-10S|
|-----------------|-------------------------|
|
| E E E E E E E E    E  E  E  E  E  E  E  E
|-----------------|-------------------------|
|-----------------|-------------------------|
|-----------------|-------------------------|
|-5-5-5-5-5-5-5-5-|--5--5--5--5--5--5--5--5-|
|-5-5-5-5-5-5-5-5-|--5--5--5--5--5--5--5--5-|
|-5-5-5-5-5-5-5-5-|--5--5--5--5--5--5--5--5-|


   E  E  E  E  E  E  E  E    +W
|-------------------------|--------------------|
|-------------------------|--------------------|
|-14-14-14S12-12-12S11-11-|-(11)---------------|
|--x--x--x--x--x--x--x--x-|--(x)---------------|
|-12-12-12S10-10-10S=9--9-|--(9)---------------|
|-------------------------|--------------------|
|
|  E  E  E  E  E  E  E  E     E  E E E E E E E
|-------------------------|--------------------|
|-------------------------|--------------------|
|-------------------------|--------------------|
|--5--5--5--5--5--5--5--5-|---5--5-5-5-5-5-5-5-|
|--5--5--5--5--5--5--5--5-|---5--5-5-5-5-5-5-5-|
|--5--5--5--5--5--5--5--5-|---5--5-5-5-5-5-5-5-|


  E E E E E E E E    E  E  E  E  E  E  E  E
|-----------------|-------------------------|
|-----------------|-------------------------|
|-7-7-7-7S9-9-9-9S|=11-11-11-11S12-12-12-12S|
|-x-x-x-x-x-x-x-x-|--x--x--x--x--x--x--x--x-|
|-5-5-5-5S7-7-7-7S|==9--9--9--9S10-10-10-10S|
|-----------------|-------------------------|
|
| E E E E E E E E    E  E  E  E  E  E  E  E
|-----------------|-------------------------|
|-----------------|-------------------------|
|-4-4-4-4-4-4-4-4-|--4--4--4--4--4--4--4--4-|
|-4-4-4-4-4-4-4-4-|--4--4--4--4--4--4--4--4-|
|-2-2-2-2-2-2-2-2-|--2--2--2--2--2--2--2--2-|
|-----------------|-------------------------|


  E E E E E E E E    E  E  E  E  E  E  E  E
|-----------------|-------------------------|
|-----------------|-------------------------|
|-7-7-7-7S9-9-9-9S|=11-11-11-11S12-12-12-12-|
|-x-x-x-x-x-x-x-x-|--x--x--x--x--x--x--x--x-|
|-5-5-5-5S7-7-7-7S|==9--9--9--9S10-10-10-10-|
|-----------------|-------------------------|
|
| E E E E E E E E    Q     Q     Q     E  E
|-----------------|-------------------------|
|-----------------|-------------------------|
|-2-2-2-2-2-2-2-2-|--2-----2-----2-----2--2-|
|-2-2-2-2-2-2-2-2-|--2-----2-----2-----2--2-|
|-0-0-0-0-0-0-0-0-|--0-----0-----0-----0--0-|
|-----------------|-------------------------|


  E E E E E E E E    E  E  E  E  E  E  E  E   H    H      h      H
|-----------------|-------------------------|-----------|-------------||
|-----------------|-------------------------|-----------|-------------||
|-7-7-7-7S9-9-9-9S|=11-11-11-11S12-12-12-12S|=7----7----|-7-----------||
|-x-x-x-x-x-x-x-x-|--x--x--x--x--x--x--x--x-|-x----x----|-x-----------||
|-5-5-5-5S7-7-7-7S|==9--9--9--9S10-10-10-10S|=5----5----|-5-----------||
|-----------------|-------------------------|-----------|-------------||
|
| E E E E E E E E    E  E  E  E  E  E  E  E   W           Q  H.
|-----------------|-------------------------|-----------|-------------||
|-----------------|-------------------------|-----------|-------------||
|-4-4-4-4-4-4-4-4-|--4--4--4--4--4--4--4--4-|-----------|-------------||
|-5-5-5-5-5-5-5-5-|--5--5--5--5--5--5--5--5-|-0---------|-0-----------||
|-5-5-5-5-5-5-5-5-|--5--5--5--5--5--5--5--5-|-0---------|-0-----------||
|-5-5-5-5-5-5-5-5-|--5--5--5--5--5--5--5--5-|-0---------|-0-----------||


 Outro
                                                      ~~~
   W           W            W            W           +W
|-----------|------------|------------|------------|--------*|
|-----------|------------|------------|------------|--------*|
|-12--------|-11---------|--9---------|--7---------|-(7)----*|
|--x--------|--x---------|--x---------|--x---------|-(x)----*|
|-10--------|--9---------|--7---------|--5---------|-(5)----*|
|-----------|------------|------------|------------|--------*|
|
|              >
|  W          +W           +W           +W           +W
|-----------|------------|------------|------------|--------*|
|-----------|------------|------------|------------|--------*|
|-----------|------------|------------|------------|--------*|
|--9--------|-(9)--------|-(9)--------|-(9)--------|-(9)----*|
|--9--------|-(9)--------|-(9)--------|-(9)--------|-(9)----*|
|--9--------|-(9)--------|-(9)--------|-(9)--------|-(9)----*|






Duration Legend
---------------
W - whole; H - half; Q - quarter; E - 8th; S - 16th; T - 32nd; X - 64th; a - acciaccatura
+ - note tied to previous; . - note dotted; .. - note double dotted
Uncapitalized letters represent notes that are staccato (1/2 duration)
Irregular groupings are notated above the duration line
Duration letters will always appear directly above the note/fret number it represents the
duration for.  Duration letters with no fret number below them represent rests.  Multi-
bar rests are notated in the form Wxn, where n is the number of bars to rest for.  Low
melody durations appear below the staff

Tablature Legend
----------------
 h   - hammer-on
 p   - pull-off
 b   - bend
 pb  - pre-bend
 r   - bend release (if no number after the r, then release immediately)
 /\  - slide into or out of (from/to "nowhere")
 s   - legato slide
 S   - shift slide
 - natural harmonic
[n]  - artificial harmonic
n(n) - tapped harmonic
 ~   - vibrato
 tr  - trill
 T   - tap
 TP  - trem. picking
 PM  - palm muting
\n/  - tremolo bar dip; n = amount to dip
 \n  - tremolo bar down
 n/  - tremolo bar up
/n\  - tremolo bar inverted dip
 =   - hold bend; also acts as connecting device for hammers/pulls
 <> - volume swell (louder/softer)
 x   - on rhythm slash represents muted slash
 o   - on rhythm slash represents single note slash

Misc Legend
-----------
 |  - bar
||  - double bar
||o - repeat start
o|| - repeat end
*|  - double bar (ending)
 :  - bar (freetime)
 $  - Segno
 &  - Coda
Tempo markers -  = BPM(8/16=s8/s16), where s8 = swing 8ths, s16 = swing 16ths





Comments


Popular Aiden tabs & chords
Die Romantic Tabs
Genetic Design For Dying Tabs
Horror Queen Intro Tabs
Last Sunrise 1 Tabs
Looking Glass Eyes 1 Tabs
One Love Tabs
See You In Hell 1 Tabs
Silent Eyes 1 Tabs
The Same Beginning Tabs
Cry Little Sister Ukulele


Song lyrics



↑ Back to top | Tablatures and chords are parodies/interpretations of the original songs. You may use it for private study, scholarship, research or language learning purposes only
© 2014 AZChords.com Contact us | Privacy policy | DMCA | Add/correct tabs | Request tabs | Top 50 tabs