>
 >
Its Cold Tonight

Its Cold Tonight Bass Tabs

Aiden - Its Cold Tonight chords, tabs, tablatures, lyrics

Guitar lessons | Add/correct | Request | Top 50 tabs Artists:  A B C D E F G H I J K L M N O P Q R S T U V W X Y Z 0-9

Its Cold Tonight Bass Tabs – Aiden

CD, Sheet music, Poster

Do you like Its Cold Tonight? Share with your friends now
Bass TabsBass Tabs v2Tabs
Bass Tuned To Dropped C# (C#, G#, C#, F#)

|----------|------------|----------|--------|
|----------|------------|----------|--------|
|-2--------|-(2)--------|----------|--------|
|----------|------------|-5--------|-(5)----|


|----------|------------|----------|--------|
|----------|------------|----------|--------|
|----------|------------|----------|--------|
|-7--------|-(7)--------|-7--------|-(7)----|


|---------------|-----------|-------------------|--------------|
|---------------|-----------|-------------------|--------------|
|---------------|-----------|-------------------|--------------|
|-9--9---9-(9)--|-------9-9-|-(9)--9--9-9-(9)-9-|-(9)------9-5-|


|-----------------|-----------|-------------------|--------------|
|-----------------|-----------|-------------------|--------------|
|-----------------|-----------|-------------------|------------2-|
|-(5)--5---5-(5)--|-------5-5-|-(5)--5--5-5-(5)-5-|-(5)------5---|


|-----------------|-----------|-------------------|--------------|
|-----------------|-----------|-------------------|--------------|
|-(2)--2---2-(2)--|-------2-2-|-(2)--2--2-2-(2)-2-|-(2)------2---|
|-----------------|-----------|-------------------|------------5-|


|-----------------|-----------|-------------------|------------|
|-----------------|-----------|-------------------|------------|
|-----------------|-----------|-------------------|------------|
|-(5)--5---5-(5)--|-------5-5-|-(5)--5--5-5-(5)-5-|-(5)--------|


|-------------|-------------|-------------|-------------|
|-------------|-------------|-------------|-------------|
|-------------|-------------|-------------|-------------|
|-0--0--0--0--|-0--0--0--0--|-2--2--2--2--|-2--2--2--2--|


|-------------|-------------|-------------|-------------|
|-------------|-------------|-------------|-------------|
|-------------|-------------|-------------|-------------|
|-5--5--5--5--|-5--5--5--5--|-7--7--7--7--|-7--7--7--7--|


|--------------|-----------|-------------------|-----------------|
|--------------|-----------|-------------------|-----------------|
|--------------|-----------|-------------------|-----------------|
|-9---9-(9)----|-------7-7-|-(7)-7-7-7-7-7-7-7-|-7-7-7-7-7-7-7-7-|


|-----------------|-----------------|-----------------|-----------------|
|-----------------|-----------------|-----------------|-----------------|
|-----------------|-----------------|-----------------|-----------------|
|-5-5-5-5-5-5-5-5-|-5-5-5-5-5-5-5-5-|-5-5-5-5-5-5-5-5-|-5-5-5-5-5-5-5-5-|


|-----------------|-----------------|-----------------|-----------------|
|-----------------|-----------------|-----------------|-----------------|
|-2-2-2-2-2-2-2-2-|-2-2-2-2-2-2-2-2-|-0-0-0-0-0-0-0-0-|-0-0-0-0-0-0-0-0-|
|-----------------|-----------------|-----------------|-----------------|


|-----------------|-----------------|----------|----------|
|-----------------|-----------------|----------|----------|
|-----------------|-----------------|----------|----------|
|-5-5-5-5-5-5-5-5-|-5-5-5-5-5-5-5-5-|-0--------|-0--------|


|----------|------------|----------|--------|
|----------|------------|----------|--------|
|-2--------|-(2)--------|----------|--------|
|----------|------------|-5--------|-(5)----|


|----------|------------|----------|--------|
|----------|------------|----------|--------|
|----------|------------|----------|--------|
|-7--------|-(7)--------|-7--------|-(7)----|


|---------------|-----------|-------------------|--------------|
|---------------|-----------|-------------------|--------------|
|---------------|-----------|-------------------|--------------|
|-9--9---9-(9)--|-------9-9-|-(9)--9--9-9-(9)-9-|-(9)------9-5-|


|-----------------|-----------|-------------------|--------------|
|-----------------|-----------|-------------------|--------------|
|-----------------|-----------|-------------------|------------2-|
|-(5)--5---5-(5)--|-------5-5-|-(5)--5--5-5-(5)-5-|-(5)------5---|


|-----------------|-----------|-------------------|--------------|
|-----------------|-----------|-------------------|--------------|
|-(2)--2---2-(2)--|-------2-2-|-(2)--2--2-2-(2)-2-|-(2)------2---|
|-----------------|-----------|-------------------|------------5-|


|-----------------|-----------|-------------------|------------|
|-----------------|-----------|-------------------|------------|
|-----------------|-----------|-------------------|------------|
|-(5)--5---5-(5)--|-------5-5-|-(5)--5--5-5-(5)-5-|-(5)--------|


|-------------|-------------|-------------|-------------|
|-------------|-------------|-------------|-------------|
|-------------|-------------|-------------|-------------|
|-0--0--0--0--|-0--0--0--0--|-2--2--2--2--|-2--2--2--2--|


|-------------|-------------|-------------|-------------|
|-------------|-------------|-------------|-------------|
|-------------|-------------|-------------|-------------|
|-5--5--5--5--|-5--5--5--5--|-7--7--7--7--|-7--7--7--7--|


|--------------|-----------|-------------------|-----------------|
|--------------|-----------|-------------------|-----------------|
|--------------|-----------|-------------------|-----------------|
|-9---9-(9)----|-------7-7-|-(7)-7-7-7-7-7-7-7-|-7-7-7-7-7-7-7-7-|


|-----------------|-----------------|-----------------|-----------------|
|-----------------|-----------------|-----------------|-----------------|
|-----------------|-----------------|-----------------|-----------------|
|-5-5-5-5-5-5-5-5-|-5-5-5-5-5-5-5-5-|-5-5-5-5-5-5-5-5-|-5-5-5-5-5-5-5-5-|


|-----------------|-----------------|-----------------|-----------------|
|-----------------|-----------------|-----------------|-----------------|
|-2-2-2-2-2-2-2-2-|-2-2-2-2-2-2-2-2-|-0-0-0-0-0-0-0-0-|-0-0-0-0-0-0-0-0-|
|-----------------|-----------------|-----------------|-----------------|


|-----------------|-----------------|-----------------|-----------------|
|-----------------|-----------------|-----------------|-----------------|
|-----------------|-----------------|-----------------|-----------------|
|-5-5-5-5-5-5-5-5-|-5-5-5-5-5-5-5-5-|-0-0-0-0-0-0-0-0-|-0-0-0-0-0-0-0-0-|


|-----------------|-----------------|-----------------|-----------------|
|-----------------|-----------------|-----------------|-----------------|
|-2-2-2-2-2-2-2-2-|-2-2-2-2-2-2-2-2-|-0-0-0-0-0-0-0-0-|-0-0-0-0-0-0-0-0-|
|-----------------|-----------------|-----------------|-----------------|


|-----------------|-----------------|-----------------|-----------------|
|-----------------|-----------------|-----------------|-----------------|
|-----------------|-----------------|-----------------|-----------------|
|-5-5-5-5-5-5-5-5-|-5-5-5-5-5-5-5-5-|-5-5-5-5-5-5-5-5-|-5-5-5-5-5-5-5-5-|


|-----------------|-----------------|-----------------|-----------------|
|-----------------|-----------------|-----------------|-----------------|
|-2-2-2-2-2-2-2-2-|-2-2-2-2-2-2-2-2-|-0-0-0-0-0-0-0-0-|-0-0-0-0-0-0-0-0-|
|-----------------|-----------------|-----------------|-----------------|


|-----------------|-----------------|----------|----------|
|-----------------|-----------------|----------|----------|
|-----------------|-----------------|----------|----------|
|-5-5-5-5-5-5-5-5-|-5-5-5-5-5-5-5-5-|-0--------|-0--------|


  Q=160
|---------|---------|---------|-----|
|---------|---------|---------|-----|
|---------|---------|---------|-----|
|---------|---------|---------|-----|


|---------|---------|---------|-----|
|---------|---------|---------|-----|
|---------|---------|---------|-----|
|---------|---------|---------|-----|


|----------|----------|----------|--------|
|-5--------|-7--------|-9--------|-(9)----|
|----------|----------|----------|--------|
|----------|----------|----------|--------|


|-----------|-----------|-----------|---------|
|-----------|-----------|-----------|---------|
|-10--------|-12--------|-14--------|-(14)----|
|-----------|-----------|-----------|---------|


|-------------|-------------|
|-------------|-------------|
|-------------|-------------|
|-5--5--5--5--|-7--7--7--7--|


                              Q=230
|-------------|-------------|----------|-----------|
|-------------|-------------|----------|-----------|
|-------------|-------------|----------|-----------|
|-5--5--5--5--|-7--7--7--7--|-9--------|-------7-7-|


|-------------------|-----------------|-----------------|-----------------|
|-------------------|-----------------|-----------------|-----------------|
|-------------------|-----------------|-----------------|-----------------|
|-(7)-7-7-7-7-7-7-7-|-7-7-7-7-7-7-7-7-|-5-5-5-5-5-5-5-5-|-5-5-5-5-5-5-5-5-|


|-----------------|-----------------|-----------------|-----------------|
|-----------------|-----------------|-----------------|-----------------|
|-----------------|-----------------|-2-2-2-2-2-2-2-2-|-2-2-2-2-2-2-2-2-|
|-5-5-5-5-5-5-5-5-|-5-5-5-5-5-5-5-5-|-----------------|-----------------|


|-----------------|-----------------|-----------------|-----------------|
|-----------------|-----------------|-----------------|-----------------|
|-0-0-0-0-0-0-0-0-|-0-0-0-0-0-0-0-0-|-----------------|-----------------|
|-----------------|-----------------|-5-5-5-5-5-5-5-5-|-5-5-5-5-5-5-5-5-|


|-----------------|-----------------|-----------------|-----------------|
|-----------------|-----------------|-----------------|-----------------|
|-----------------|-----------------|-2-2-2-2-2-2-2-2-|-2-2-2-2-2-2-2-2-|
|-0-0-0-0-0-0-0-0-|-0-0-0-0-0-0-0-0-|-----------------|-----------------|


|-----------------|-----------------|-----------------|-----------------|
|-----------------|-----------------|-----------------|-----------------|
|-0-0-0-0-0-0-0-0-|-0-0-0-0-0-0-0-0-|-----------------|-----------------|
|-----------------|-----------------|-5-5-5-5-5-5-5-5-|-5-5-5-5-5-5-5-5-|


|-----------------|-----------------|-----------------|-----------------|
|-----------------|-----------------|-----------------|-----------------|
|-----------------|-----------------|-2-2-2-2-2-2-2-2-|-2-2-2-2-2-2-2-2-|
|-5-5-5-5-5-5-5-5-|-5-5-5-5-5-5-5-5-|-----------------|-----------------|


|-----------------|-----------------|-----------------|-----------------|
|-----------------|-----------------|-----------------|-----------------|
|-0-0-0-0-0-0-0-0-|-0-0-0-0-0-0-0-0-|-----------------|-----------------|
|-----------------|-----------------|-5-5-5-5-5-5-5-5-|-5-5-5-5-5-5-5-5-|


|----------|----------|----------|--------|
|----------|----------|----------|--------|
|----------|----------|-2--------|-(2)----|
|-0--------|-0--------|----------|--------|


|------------|------------|--------*|
|------------|------------|--------*|
|-(2)--------|-(2)--------|-(2)----*|
|------------|------------|--------*|





Comments


Popular Aiden tabs & chords
Goodbye We're Falling Fast Bass Tabs
We Sleep Forever Bass Tabs
Bridge Of Reason Shore Of Faith Intro Tabs
Genetic Design For Dying 1 Tabs
Horror Queen Tabs
I Set Mt Friends On Fire Tabs
Knife Blood Nightmare Tabs
Last Sunrise 3 Tabs
One Love Tabs
Opening Departure Ukulele


Song lyrics



↑ Back to top | Tablatures and chords are parodies/interpretations of the original songs. You may use it for private study, scholarship, research or language learning purposes only
© 2014 AZChords.com Contact us | Privacy policy | DMCA | Add/correct tabs | Request tabs | Top 50 tabs